Song name
# A B C D E F G H I J K L M N O P Q R S T U V W X Y Z

Joyce Manor - Beach Community tab

CREDIT TO AJ Peacox YOUTUBE VID!!
http://www.youtube.com/watch?v=dL-Aa0NaUDE

E
I lost it all in a beach community,
A
Where it was lost is not all that clear to me.
E
Over the sidewalk, into a slow talk.
A
Call the police!
E
Told me I'm in the wrong town.

RIFF:
----------------------|
----------------------|
--4---4-----4---------|
6-2-6-2-6-4-2-2-6-4---|
4---4---4-2---0-4-2---|
----------------------|
[x2]


C#m
Wait for your cue 'cause my scene it ain't over.
E
Torch up your house while your kids are at home.
C#m
What can you do when you're not getting sober?
E                                              C#m
It's hard to admit but you're always feeling alone.
         B
you're always...

E                 B            C#m             A          E           B
Just a few miles down as the streets count backwards, I realize it's true.

C#m           A           E
Everything reminds me of you.

[x2]

RIFF:
----------------------|
----------------------|
--4---4-----4---------|
6-2-6-2-6-4-2-2-6-4---|
4---4---4-2---0-4-2---|
----------------------|

C#m           A           A/G#
Everything reminds me of you.
Tap to rate this tab
 
# A B C D E F G H I J K L M N O P Q R S T U V W X Y Z