Song name
# A B C D E F G H I J K L M N O P Q R S T U V W X Y Z

Joyce Manor - Done Right Discount Flooring tab

Done Right Discount Flooring
Joyce Manor
jjjddd

EADGBe


intro - whole load of muted note picking at the third fret bass strings
        and occasionally fifth fret on the treble strings

e|---------------------------------------------------------|
B|---------------------------------------------------------|
G|---------------------------------------------------------|
D|-5--5-5-5-5-5-5--5--5-5-5-5-5-5-9--9-7-9--9-7-9--9-7-9-7-|x2
A|-5--5-5-5-5-5-5--5--5-5-5-5-5-5--------------------------|
E|-3--3-3-3-3-3-3--3--3-3-3-3-3-3-7--7-5-7--7-5-7--7-5-7-5-|


no guitar here, just drum, bass and vocals


e|-----------------------------|
B|-----------------------------|
G|-----------------------------|
D|-9--9-9-9-9-9-9--9--9--9--9--|
A|-9--9-9-9-9-9-9--9--9--9--9--|
E|-7--7-7-7-7-7-7--7--7--7--7--|
      * * * * * *

e|---------------------------------------------------------|
B|---------------------------------------------------------|
G|---------------------------------------------------------|
D|-5--5-5-5-5-5-5--5--5-5-5-5-5-5-9--9-7-9--9-7-9--9-7-9-7-|x2
A|-5--5-5-5-5-5-5--5--5-5-5-5-5-5--------------------------|
E|-3--3-3-3-3-3-3--3--3-3-3-3-3-3-7--7-5-7--7-5-7--7-5-7-5-|


(these notes are tremolo picked)
e|--------------------|
B|--------------------|    i think the rhythm guitar is just 
G|-12x14-14-14-11x12--|x2  playing the g and b chords from the
D|--------------------|    start under this
A|--------------------|
E|--------------------|


e|---------------------------------------------------------|
B|---------------------------------------------------------|
G|---------------------------------------------------------|
D|-5--5-5-5-5-5-5--5--5-5-5-5-5-5-9--9-7-9--9-7-9--9-7-9-7-|x2
A|-5--5-5-5-5-5-5--5--5-5-5-5-5-5--------------------------|
E|-3--3-3-3-3-3-3--3--3-3-3-3-3-3-7--7-5-7--7-5-7--7-5-7-5-|


guitar 1
e|------------------------------------------------|
B|------------------------------------------------|
G|-7h9-7h9~~~--------------7h9-7h9~~~~~-----------|
D|------------7h9-7h9~~~~~--------------7h9-7h9bu-|
A|------------------------------------------------|
E|------------------------------------------------|
guitar 2
e|--------------------|
B|--------------------|
G|-12x14-14-14-11x12--|x2
D|--------------------|
A|--------------------|
E|--------------------|


(i think the g string 12th fret notes might be tremolo
 picked really quickly here, sounds fine both ways tho)
e|--------------------------------------------------------|
B|-12----12----12-------------12----12----12--------------|
G|----12----12----12-11111111----12----12----12-14141414--|
D|--------------------------------------------------------|
A|--------------------------------------------------------|
E|--------------------------------------------------------|

e|---------------------------------------------------------------|
B|-12----12----12------------------------------------------------|
G|----12----12----12-11111111-12121212121212121212121212121212\--|
D|---------------------------------------------------------------|
A|---------------------------------------------------------------|
E|---------------------------------------------------------------|
Tap to rate this tab
# A B C D E F G H I J K L M N O P Q R S T U V W X Y Z