Jr Richards - Beautiful End tab

A Beautiful End
JR Richards

E----=--5-----5---5-----4-----4---4-|
B-----5-----5---------5-----5-------|
G---2-----2-----2---2-----2-----2---|
D-----------------------------------|
A-----------------------------------|
E-----------------------------------|

E----=--5-----5---5-----4-----4---4-|
B-----5-----5---------5-----5-------|
G---2-----2-----2---2-----2-----2---|
D-----------------------------------|
A-----------------------------------|
E-----------------------------------|
Tap to rate this tab
 
# A B C D E F G H I J K L M N O P Q R S T U V W X Y Z