Song name
# A B C D E F G H I J K L M N O P Q R S T U V W X Y Z

Jra - Handle With Care tab

my fourth tab. rate and comment! :)
JRA's video: http://www.youtube.com/watch?v=JeYO-2d3uUI


HANDLE WITH CARE
(Written & Composed by JRA)

Intro/Verse
E|----------0h2---------------0h2----------------------0------------------0----|
B|------2------2---------2--------2---2----------0h2-----2----------0h2-----2--|
G|----2---2-------2----2---2--------2--------1------1-----------1------1-------|
D|--0----------------0---------------------2---2--------------2---2------------|
A|---------------------------------------0------------------0------------------|
E|-----------------------------------------------------------------------------|
This is a perfect night to me
Just you & I snugglin' in front of the TV
Just hanging out with our PJs on
Watching "Law & Order: SVU" all night long


PRECHORUS  
*palm mute            then, strum
  Dmaj7   Amaj7   Dmaj7  E      E
E|--2---------------2--------|-----|
B|--2-------2-------2--------|-----|
G|--2-------1-------2----1---|--1--|
D|----------2------------2---|--2--|
A|-----------------------2---|--2--|
E|---------------------------|-----|
Do you feel it beating?
Do you hear what it's saying to you?
'Cause mine is fleeting
and I think I'm falling


CHORUS
Dmaj7                        Amaj7   E
Oh Oh Oh, this could be L-O-V-E
Dmaj7                                   Amaj7   E
Oh Oh Oh, this is what I dreamed it would be

        Dmaj7                         
You got my heart on a leash and I just cannot speak
        Amaj7             E   
I won't go anywhere, just handle with care
   Dmaj7
My heart
             Amaj7
Please don't break it
   E    
No, please don't break it



There's no place I'd rather be
than to be with you underneath these sheets
Oh, to feel like this
No it can't be wrong
No it can't be wrong

There's no place I'd rather be
than to be with you right in front of me
With our lips locked
Our eyes closed shut
and no one else but us

repeat PRECHORUS

repeat CHORUS


...
 Dmaj7
Baby please don't
               
Baby please don't
Amaj7          E         
Baby please don't

Dmaj7         Amaj7   E
please dont break it no




(repeat 2nd verse)
E|----------0h2---------------0h2----------------------0------------------0----|
B|------2------2---------2--------2---2----------0h2-----2----------0h2-----2--|
G|----2---2-------2----2---2--------2--------1------1-----------1------1-------|
D|--0----------------0---------------------2---2--------------2---2------------|
A|---------------------------------------0------------------0------------------|
E|-----------------------------------------------------------------------------|

please dont break it
please dont break it

There's no place I'd rather be
than to be with you underneath these sheets
Oh, to feel like this
No it can't be wrong
No it can't be wrong

There's no place I'd rather be
than to be with you right in front of me
With our lips locked
Our eyes closed shut
and no one else but us

Think this could be love
Real love
Could this be real love?

 one strum:
E|-----|
B|--2--|
G|--1--|
D|--2--|
A|-----|
E|-----|
Tap to rate this tab
 
# A B C D E F G H I J K L M N O P Q R S T U V W X Y Z