Song name
# A B C D E F G H I J K L M N O P Q R S T U V W X Y Z

Jra - By Chance You And I tab

The chords you need to know are the following:

   G       D      Am     C
---3-------2--------------------|
-----------3------1-1----1------|
-----------2------2-2-----------|
------------------2-2----2------|
---2---------------------3------|
---3----------------------------|

Capo - 3rd Fret

Intro:
                                                                  [strum: 1] 
   |<-----G----->| |<----D---->||<-------Am------->| |<---------C--------->|
-----3--3----3--3-----2-2---2-2---------------0------------------------0---|
-----0--0----0--0-----3-3---3-3--------1---1-----1----------1---1-----1----|
-----0--0----0--0-----2-2---2-2------2---2-----2-----------0---0-----0-----|
--------------------0-----0--------2--------------------2-----------2------|
-----------2---------------------0--------------------3------------3-------|
---3-----------------------------------------------------------------------|

G    G                     D
Hi, girl you just caught my eye
D                        Am
thought I should give it try
              Am
and get your name & your number
 C                    C
go grab some lunch & eat some cucumbers
 G            G
Why, did I say that? 
              D
I don't know why.
         D                            Am
But you're smilin' and it's something' i like 
              Am
on your face, yeah it suits you
C [strum: 1]                 Am
girl we connect like we have bluetooth


                C
I don't know why
              G
I'm drawn to you 
                       D                    Am
Could you be the other one so we'd equal two?
                  C                 G
and this is all based on a lucky chance
                      D [strum: 1]
that you would rather add then subtract



G        D 
  You & I
                Am
could be like sonny & cher
C
honey & bears
G         D
  You & I 
                 Am       
could be like aladdin & jasmine
C
lets make it happen, like

G, D, Am, C
G, D, Am, C



G               G 
Hey, how've you been?
                       D
I know that it's been awhile. 
        D                            Am
Are you tired cause you've been on my mind
         Am
runnin' thousand & thousands of miles
 C                  C
Sorry, I know that line's outta style
   G
but you
             G                        D
you look so beautiful on this starry night
              D                           Am
loving the way the moonlight catches your eyes & your smile
 Am
i'm captivated
     C                         Am
your beauty is timeless, never outdated


                C
I don't know why
              G
I'm drawn to you 
                       D                    Am
Could you be the other one so we'd equal two?
                  C                 G
and this is all based on a lucky chance
                      D [strum: 1]
that you would rather add then subtract



G        D 
  You & I
                Am
could be like sonny & cher
C
honey & bears, yeah
G         D
 And you & I 
                 Am       
could be like aladdin & jasmine
C
lets make it happen

        G 
-----------------|
----------3---3--|
--------0---0----| [4 Times]
------0----------|
-----------------|
--3--------------|

G [strum: 1]                              D [strum: 1]
Babe, its been 5 years since that special day
                               Am [strum: 1]
when I asked you on our first date
    C [strum: 1]
i guess it's safe to say that,


G         D
 You and I
                Am                       
Are better than sonny and cher
 C                G
honey and bears,yeah
            D
And you and I 
                Am
are better than aladdin & jasmin
C
We made it happen, singing

G, D, Am, C
G, D, Am, C [strum: 1]
             G            D              A           C [strum: 1]
--------------------------0p2---------------------------------|
----------3---3---------3-------3----------1---1-------1------|
--------0---0---------2-------2----------2---2--------0-------|
------0-------------0------------------2-------------2--------|
-------------------------------------0--------------3---------|
--3-----------------------------------------------------------|


       G
Let me say
                            D
you look beautiful on our wedding day
Tap to rate this tab
 
# A B C D E F G H I J K L M N O P Q R S T U V W X Y Z