Song name
# A B C D E F G H I J K L M N O P Q R S T U V W X Y Z

Jra - By Chance You And I tab

J.R.A - By Chance (You and I)

I Now have Full song tabs at http://www.youtube.com/user/anjelloguitar
Subscribe for more tabs



|----3-3----3-3----2-2---------------0-------------------------|
|----3-3----3-3----3-2---------1---1-----1---------1---1----1--|
|----0-0----0-0----2-2-------2---2-----2---------0---0------0--|
|----------------0---------2-------------------2------------2--|
|----------2------------0--------------------3--------------3--|
|--3-----------------------------------------------------------|

|----3-3----3-3----2-2----2-2------------------------------------|
|----3-3----3-3----3-3----3-3----1-1----1-1------1-1------1-1----|
|----0-0----0-0----2-2----2-2----2-2----2-2------0-0------0-0----|
|----------------0------0--------2-2----2-2------2-2------2-2----|
|---------2--------------------0------0-------3--3-3---3--3-3----|
|--3-------------------------------------------------------------|

|----3-3----3-3------2-2----2-2----------------------------------|
|----3-3----3-3------3-3----3-3----1-1----1-1---------------1----|
|----0-0----0-0------2-2----2-2----2-2----2-2------------0-------|
|------------------0------0--------2-2----2-2---------2----------|
|---------2----------------------0------0----------3-------------|
|--3-------------------------------------------------------------|


|---------------------3-3-----2-2-------|
|-----1-1----1-1------3-3-----3-3-------|
|-----2-2----0-0------0-0-----2-2-------|
|-----2-2----2-2------------0-----------|
|---0------3-3-3------------------------|
|-------------------3-------------------|

|---------------------3-3----2--------|
|-----1-1----1-1------3-3----3--------|
|-----2-2----0-0------0-0----2--------|
|-----2-2----2-2----------------------|
|---0------3-3-3----------------------|
|-------------------3-----------------|


I Now have Full song tabs at http://www.youtube.com/user/anjelloguitar
Subscribe for more tabs
Tap to rate this tab
# A B C D E F G H I J K L M N O P Q R S T U V W X Y Z