Song name
# A B C D E F G H I J K L M N O P Q R S T U V W X Y Z

Jra - Try This tab

Hello, this is my first tab and I hope this helps many of the people who look for the 
tab of this song, if anything is wrong, please forgive me, I played this by ear and I'll 
do my best to put this on a tab. if any advice or correction please tell me:) 
j.quintanilla97@hotmail.com

CAPO 6TH FRET
        ^        ^   ^           ^   ^         ^   ^
e|-|-11-|-11-|-9-|-9-|-9-|-9-|-8-|-8-|-8-|-8h9-|-9-|-9-|-9-|
B|-|-0--|-0--|-0-|-0-|-0-|-0-|-0-|-0-|-0-|--0--|---|-0-|-0-|
G|-|-0--|-0--|-0-|-0-|-0-|-0-|-0-|-0-|-0-|--0--|---|-0-|-0-|
D|-|----|----|---|---|---|---|---|---|---|-----|---|---|---| (x2)
A|-|----|----|---|---|---|---|---|---|---|-----|---|---|---|
E|-|----|----|---|---|---|---|---|---|---|-----|---|---|---|
   v         v           v   v           v             v
        ^        ^   ^           ^   ^       ^   ^
e|-|-11-|-11-|-9-|-9-|-9-|-9-|-9-|-9-|-9-|-9-|-9-|-9-|-9-|
B|-|-0--|-0--|-0-|-0-|-0-|-0-|-9-|-9-|-9-|-9-|-9-|-9-|-9-|
G|-|-0--|-0--|-0-|-0-|-0-|-0-|-0-|-0-|-0-|-0-|-0-|-0-|-0-|
D|-|----|----|---|---|---|---|---|---|---|---|---|---|---|
A|-|----|----|---|---|---|---|---|---|---|---|---|---|---|
E|-|----|----|---|---|---|---|---|---|---|---|---|---|---|
   v         v           v   v           v           v
       ^         ^
e|-|-0-|-0-|-0h2-|-2-|-2p3p2-|
B|-|-3-|-3-|--3--|-3-|--3----|
G|-|-2-|-2-|--2--|-2-|--2----|
D|-|---|---|-----|---|-------| (x2)
A|-|---|---|-----|---|-------|
E|-|---|---|-----|---|-------|
   v       v         v

The rest of the song as the way I see is:
    D/F#    G      Cadd2    A
e|-|-0h2-|--0h3--|--0h3--|-----|
B|-|--3--|---3---|---3---|--2--|
G|-|--2--|-------|-------|--2--|
D|-|-----|-------|---2---|--2--|
A|-|-----|---2---|---3---|-----|
E|-|--2--|---3---|-------|-----|

The part where it says "You might think Im crazy, Probably think hes out of his 
mind..."  goes with
      F#    G
e|-|--2--|--3--|
B|-|--2--|--3--|
G|-|--3--|-----|
D|-|--4--|-----|
A|-|--4--|--2--|
E|-|--2--|--3--|.
Tap to rate this tab
# A B C D E F G H I J K L M N O P Q R S T U V W X Y Z