Song name
# A B C D E F G H I J K L M N O P Q R S T U V W X Y Z

Jrzy - Jersey Girl tab

jrzy is a new band in virginia
there pretty good so i hope u like it


i cant belive there is no other tab for this awsome song
intro
12--12--12---------12-|
12--12--12------12-12-|
--12--12--12-12-12----|
----------------------|
----------------------|


verse

guitar 1
------10-------10------|
----11-------10--------|
--10-------10----------|
12-------12------------|      (x8)
-----------------------|
-----------------------|


guitar 2
do this with a bar

----12------12------9-----9---|
--12--12--12--12--9--9--9--9--|  (x8)
12------12------9-----9-------|
------------------------------|
------------------------------|
------------------------------|

try and land it so they end the same time(guitar 2 is fast guitar 1 is slow and sad)


chorous count

3-3-3-3-3-3-0-0-0-0-0-0-|
0-0-0-0-0-0-0-0-0-0-0-0-|
------------------------|
------------------------|
------------------------|
------------------------|


chorous

G G G G G Gp Em Em Em Em Em Emp(x 3)

verse

chorous

solo


12--12--12------12------12-------12-12-12----12-----------12-|
--12--12--12--12--12--12--12--12-12-12-12--12--12-12-12---12-|
------------12------12------12-----------12-------------12---|
-------------------------------------------------------------|
-------------------------------------------------------------|
-------------------------------------------------------------|


it sounds better with a piano and drums but the guitar parts are pretty good


cam
aim:cucumberslice94
Tap to rate this tab
# A B C D E F G H I J K L M N O P Q R S T U V W X Y Z