Song name
# A B C D E F G H I J K L M N O P Q R S T U V W X Y Z

Jt Experience - Party Like A Rockstar tab

Tabed: Dylan Smith
Any Questions Fell Free To Ask 
killapassat15@hotmailom.com  <----- E-mail
Add me on myspace to 
www.myspace.com/sharpshooterboy



_______________________________________________
|---------------------------------------------|
|---------------------------------------------|
|--------------------4--4--4--4--4--4--4--6---|
|--4-----4---6---7----------------------------|
|---------------------------------------------|
|---------------------------------------------|
===============================================
|---------------------------------------------|
|---------------------------------------------|
|--------------------6--6--6--6--4--4-----4---|
|--4-----4---6---7---------------------7------|
|---------------------------------------------|
|---------------------------------------------|
===============================================
|--9--10--7--9------7----------|
|---------------10-----9--10---|
|------------------------------| X 3
|------------------------------|
|------------------------------|
|------------------------------|
===============================================
|--10-(10)-(10)--9-(9)-(9)--|
|---------------------------|
|---------------------------|
|---------------------------|
|---------------------------|
|---------------------------|

()=Hold Note
Tap to rate this tab
 
# A B C D E F G H I J K L M N O P Q R S T U V W X Y Z