Song name
# A B C D E F G H I J K L M N O P Q R S T U V W X Y Z

Jtx - Nothing Matters tab

Intro:

h=hammer on
p=pull off
b=bend

Intro: x2
e|---------------------------------------------------------------------------|
B|--7h9p7-----------7h9p7---------------7h9p7--------------------------------|
G|-----------9p6-------------9p6---8------------9p6---8b---------------------|
D|---------------9---------------9------------------9------------------------|
A|---------------------------------------------------------------------------|
E|---------------------------------------------------------------------------|

Verse:(00:30)
e|---------------------------------------------------------------------------|
B|---------------------------------------------------------------------------|
G|---------------------6-6---------------------------------------------------|
D|---7----9-9---6x6----6-6---x3------------11---------9----------------------|
A|---7----9-9---6x6----4-4--------------8----------7-------------------------|
E|---5----7-7---4x4------------------7----------5----------------------------|

Chorus:
e|---------------------------------------------------------------------------|
B|---------------------------------------------------------------------------|
G|--------4-4----6-6---------------------------------------------------------|
D|---2----4-4----6-6---7-7-7-7-7---x3----------------------------------------|
A|---2----2-2----4-4---7-7-7-7-7---------------------------------------------|
E|---0-----------------5-5-5-5-5---------------------------------------------|


Order:
Intro
Verse 
Chorus
Intro
Verse
Solo (not yet, soon)
Intro
Ending (also soon)

http://www.jtxperience.com/
Tap to rate this tab
 
# A B C D E F G H I J K L M N O P Q R S T U V W X Y Z