Song name
# A B C D E F G H I J K L M N O P Q R S T U V W X Y Z

Juan Dela Cruz Band - Kahit Na Anong Mangyari chords

Highlighted       Show chord diagrams
KAHIT NA ANONG MANGYARI
JUAN DELA CRUZ BAND



INTRO RIFF:

Intro:
G|-----7---------|-----7------|-----7---------|-----|
D|-7h9---9-7-----|-7h9---9----|-7h9---9-7-----|-----|
A|-----------9-5-|---------7b-|-----------9-5-|-8-7-|
E|---------------|------------|---------------|-----|



PRE-CHORUS:

D                        Bb
SABIK NA SABIK ANG LAHAT, SA MGA KONSYERTO
G                      A
IBIGAY NYO NG LAHAT AT ITODO

CHORUS:

D                       A
KAHIT NA ANONG MANGYARI NARITO PA RIN KAMI
D                      A
KAHIT NA ANONG MAUSO PINOY ROCK PA RIN TAYO
G                        A                    Bb    
KAHIT NA ANONG MANGYARI TAYONG LAHAT AY MAGKAKAMPI


G                                                       A
ANO BA MGA PARE KUMUSTA NA KAYO RIYAN NAGKITA-KITA NA NAMAN
G                                                       A
ROCK N ROLL PA RIN ANG ATING PAG-UUSAPAN, ROCK N ROLL SA ULAN


D                        Bb
SABIK NA SABIK ANG LAHAT, SA MGA KONSYERTO
G                      A
IBIGAY NYO NG LAHAT AT ITODO


D                       A
KAHIT NA ANONG MANGYARI NARITO PA RIN KAMI
D                      A
KAHIT NA ANONG MAUSO PINOY ROCK PA RIN TAYO
G                        A                    Bb
KAHIT NA ANONG MANGYARI TAYONG LAHAT AY MAGKAKAMPI

G                                                      A
SINDIHAN MO NA PARE ANG ATING SIGARILYO, WALA AKONG POSPORO
G
WAG MO NG PANSININ ANG MGA HASSLE, WOW TOL FREAK-OUT LANG YAN

REPEAT PRE-CHORUS:
REPEAT CHORUS:

ADLIB SOLO GUITAR: G-A-G-A

REPEAT INTRO RIFF:


Intro:
G|-----7---------|-----7------|-----7---------|-----|
D|-7h9---9-7-----|-7h9---9----|-7h9---9-7-----|-----|
A|-----------9-5-|---------7b-|-----------9-5-|-8-7-|
E|---------------|------------|---------------|-----|

REPEAT PRE CHORUS:
REPEAT CHORUS 5X TO FADE.....


Tap to rate this tab
 
# A B C D E F G H I J K L M N O P Q R S T U V W X Y Z