Guitaretab - guitar tabs
Song name
# A B C D E F G H I J K L M N O P Q R S T U V W X Y Z

Juana - Ikaw Pa Rin tab

Title	 : Ikaw Pa Rin 	
Artist	 : Juana
Tabbed by: Ramon O. Ferrer
e-mail	 : chochany17@yahoo.com
School   : Unciano College (aw! sikat!)


Para toh sa lahat ng mga chixs nu na pinasaya nu! haha..


Intro & Verse
         E            C#m           Bm              A 
E |-------------*-------------*-------------*---------------------|
B |-------------*-------------*-------------*---------7-----------|
G |---8h9-9-9-8-*-8-8h9-9-9-8-*-8-8h9-9-9-8-*-8-8h9-9---9---------| 
D |-------------*-------------*-------------*---------------------| 
A |---7-----7---*-------------*-------------*---0-----------------|
E |-------------*---9-----9---*---7-----7---*---------------------|

E |-------------*-------------*-------------*---------------------|
B |-------------*-------------*-------------*--10--9---7----------|
G |-8-8h9-9-9-8-*-8-8h9-9-9-8-*-8-8h9-9-9-9-*-------------10--9---| 
D |-------------*-------------*-------------*---------------------| 
A |---7-----7---*-------------*-------------*-0---0---0--0---0----|
E |-------------*---9-----9---*---7-----7---*---------------------|

  Nang matapos na ang mga araw na ika’y sa aking piling iniibig ka pa rin
  Nang maglaho na ang sikat ng buwan at araw sa tuwing magdamag ikaw pa rin


Pre-Chorus
     F#                A              F#                  A
E |------------------------------------------------------------------|
B |------------------------------------------------------------------|
G |--11-------------------------------11-----------------------------|
D |--11----------------7--------------11------------------7----------|
A |--9-----------------7--------------9-------------------7----------|
E |--------------------5----------------------------------5----------|
 
  Bakit nga ba tong pusong nasugatan  
  Tila nais paring maramdaman tamis ng yakap mo’t halik

[ Tab from: http://www.guitaretab.com/j/juana/72740.html ]
Chorus
     E                 C#              Bm                 E
E |------------------------------------------------------------------|
B |------------------------------------------------------------------|
G |--9---------------------------------------------------------------|
D |--9-----------------11--------------9------------------7----------|
A |--7-----------------11--------------9------------------7----------|
E |--------------------9---------------7------------------5----------|

  Naaalala mo pa ba nung tayo’y magkasama pa
  Iyong sinabi’t pinangako na nalimot mo na siya
  At kahit naglaho ka na muling sumama sa kanya
  Sa aking puso ay ikaw pa rin, ikaw pa rin

Intro&Verse E-C#m-Bm-A

  Tuwing paggising sa umaga ang iyong mukha ang nais halikan at sambahin
  Sa maghapon ay iniisip ka lamang at ang mga nakaraan na kay saya

Pre-Chorus F#m-A

  Bakit nga ba iyong puso'y sinugatan 
  Habang pagsisisi ay hindi na kailanman mawawala

Chorus E-C#m-Bm-A

  Naaalala mo pa ba nung tayo'y magkasama pa 
  Aking sinabi't pinangako na tayo'y may pag-asa 
  Ngayon kahit siya ay sakin sa kanyang yakap at lambing 
  Tila nais ay ikaw parin, ikaw parin

Adlib
e|---------------------------------------------------------|
B|----12\10----10-9--------------12\10----10-9-------------|
G|-10-------12------11-9-11---10-------12------11-9--------|
D|--------------------------------------------------11-----|
A|---------------------------------------------------------|
E|---------------------------------------------------------|

e|--------------------------------------------------------------------------------|
B|--------------------------------------------------------------------------------|
G|---------------------------------------------------------------------7h8h9h10---|
D|---------------------------------4h5h6h7-6h7h8h9-7h8h9h10-9h10h11h12------------|
A|-------9-7-----------7-7-9-7-9--------------------------------------------------|
E|-7/9-9-----9\1---7h9--9-----9---------------------------------------------------|

e|----19-17----17-16---------------19-17----17-16---------------------|
B|-17-------19-------19-17-19---17-------19-------19-17b--------------|
G|-------------------------------------------------------18b----------|
D|--------------------------------------------------------------------|
A|--------------------------------------------------------------------|
E|--------------------------------------------------------------------|

e|-------12-15-15b-17-15b-12-15b-15b-12------------|
B|---15b-------------------------------------------|
G|-------------------------------------------------|
D|-------------------------------------------------|
A|-------------------------------------------------|
E|-------------------------------------------------|

Verse1
Chorus

-End-
Related for Ikaw Pa Rin tab
Advertisement will be closed in 10 seconds