Song name
# A B C D E F G H I J K L M N O P Q R S T U V W X Y Z

Juanes - Podemos Hacernos Dano tab

Artist: Juanes
Song: Podemos Hacernos Dano SOLO
Album: Fijate Bien
Tabbed By Nick
 Standard Tuning

e -----7-10-8-7----------------------|
B ---8---------10-8-7----------------|
G -9------------------9-8-9b~--------|
D -----------------------------------|
A -----------------------------------|
E -----------------------------------|


e ----------------------------------------12-14-14h15p14-12-------------------------|
B -7-8-10s12-12-13p12-10-12------12-13-15------------------15-12--------------------|
G --------------------------12-14---------------------------------------------------|
D-----------------------------------------------------------------------------------|
A ----------------------------------------------------------------------------------|
E ----------------------------------------------------------------------------------|


e ------------------------------------------------------------------------------------|
B --------------------------12--------12----12--12--12--12----------------------------|
G -14-12-11-------11-----------14-12--14b---14b-14b-14b-14b---------------------------|
D ----------14-12----14-12------------------------------------------------------------|
A ------------------------------------------------------------------------------------|
E ------------------------------------------------------------------------------------|

e ------------------------------------------------------------------------------------|
B -------------------------------7-8-10-8h10p8-7--------------------------------------|
G -7-8-9~--7-8-9~--7-8-9~--7-8-9~----------------9-7-9b-9-7---7---9-------------------|
D ---------------------------------------------------------9---9---9------------------|
A ------------------------------------------------------------------10-7--------------|
E ------------------------------------------------------------------------------------|
Tap to rate this tab
 
# A B C D E F G H I J K L M N O P Q R S T U V W X Y Z