Guitaretab - guitar tabs
Song name
# A B C D E F G H I J K L M N O P Q R S T U V W X Y Z

Juanes - No Creo En El Jamas tab

INTRO- play once
e|-12-12-12-12-12-12-11-11-11-11-9-9-9-9-9----------------|
B|-----------------------------------------12-12-12-12-12-|
G|--------------------------------------------------------|
D|--------------------------------------------------------|
A|--------------------------------------------------------|
e|--------------------------------------------------------|
-
e|------------------------------------------------------|
B|-10-9------10-9------12-10-9--------------------------|
G|------11-9------11-9---------11-9-8---8---------------|
D|------------------------------------11----------------|
A|------------------------------------------------------|
e|------------------------------------------------------|
[ Tab from: http://www.guitaretab.com/j/juanes/103863.html ]
Verse-play 2x
e|------------------------------------------------------|
B|------------------------------------------------------|
G|-------9------9-------8------8----4-8---4-8--------4--|
D|---6-9----6-9-----6-9----6-9----6------6------1-4-----|
A|-7------7-------6------6------4------4------2---------|
e|------------------------------------------------------|
-
e|---------------------------------------------------------|
B|-------0-------0-------0-------0-------------------------|
G|-----2-------2-------2-------2---------4-------4-------4-|
D|---2-------2-------2-------2-------1-4-----1-4-----1-4---|
A|-0-------0-------0-------0-------2-------2-------2-------|
e|---------------------------------------------------------|
-
e|---------|
B|---------|
G|-------4-|
D|---1-4---|
A|-2-------|
e|---------|

Pre-chorus- play once
e|----------------------------|
B|----------------------------|
G|-9-11-9-8-9-6-4-2-4-2-------|
D|-9-11-9-8-9-6-4-2-4-2-6-4-2-|
A|-7-9--7-6-7-4-2-0-2-0-6-4-2-|
e|----------------------4-2-0-|

Chorus- Listen to song for strumming pattern
e|------------------------------------------------------|
B|-----------------5-4-0-5-4-0-5-4-0-5-4-0-5-4-0--------|
G|-9-8-8-4----------------------------------------------|
D|-9-9-6-4(twice)--------------------------------------|
A|-7-6-4-2----------------------------------------------|
e|------------------------------------------------------|

Repeat Intro.


Solo- play once
e|-----------------7-5-4-5-4-2-0-2-0-----------------------|
B|---0-5-5-4-2-0-4-------------------4-2-4-2-0-5-4-5-4-2-0-|
G|-1-------------------------------------------------------|
D|---------------------------------------------------------|
A|---------------------------------------------------------|
e|---------------------------------------------------------|
-
e|-----------------------0-2-4-0-7-5-4-2-0-----0-|
B|-------------------2-4-------------------4-2---|
G|-1-----1---------4-----------------------------|
D|---4-2---4-2-1-4-------------------------------|
A|-----------------------------------------------|
e|-----------------------------------------------|


Breakdown- Same chords as the Chorus

Pre-Chorus

Chorus

The End!
Related for No Creo En El Jamas tab