Guitaretab - guitar tabs
Song name
# A B C D E F G H I J K L M N O P Q R S T U V W X Y Z

Juanes - Yerbatero tab

Hola este es mi primer tab aqui espero,que les guste... pues lo saque a oido :)

les voy a explicar un poco como tocarla:

h= hammer on  martillar
p=pull of  tirar de la cuerda
~=vibrar
b=bend  subir la cuerda
r=release  bajar la cuerda

ahora la parte que va:

|
|------7-br
|----5-7-br  ese espacio aqui   |-es para que lo dejen sonar un ratico como 
|5-7    |_______________________|    como pasmado y luego el bend y release!
|
|





|8-5h8p5-----------5--|8-8-8-5h8p5----------5----|
|---------8-5h8p5---5-|------------8-5h8p5----5--|
|---------------------|--------------------------|
|---------------------|--------------------------|
|---------------------|--------------------------|
|---------------------|--------------------------|
[ Tab from: http://www.guitaretab.com/j/juanes/228082.html ]
|------------------------------------------------|
|--------8-7---------5~-----8-8-7-7----------5~--|
|----5---8-7-5h7p5---5~-----8-8-7-7--5h7p5---5~--|
|5-7---------------7-----7-----------------7----7|
|------------------------------------------------|
|------------------------------------------------|

|8-8-8-8-5h8p5----------5-----------------------------------------|
|---------------8-5h8p5---5----------7-br--------7-br-------7-br~-|
|---------------------------------5--7-br------5-7-br-----5-7-br~-|
|-----------------------------5-7---------5-7---------5-7---------|
|-----------------------------------------------------------------|
|-----------------------------------------------------------------|


tab subido por Zohan 23 !!!  practiquenlo y disfrutenlo es muy facil de tocar 
dedicado a Alejo Villegas a Sebastian Mozo a Alvaro Ramirez y a todos los parceros del cocao jaja 
Related for Yerbatero tab
Yerbatero chords by Juanes