Song name
# A B C D E F G H I J K L M N O P Q R S T U V W X Y Z

Juanes - Yerbatero tab

-----------------------------------------------------------------------------
			     YERBATERO - Juanes
-----------------------------------------------------------------------------
Tabbed by: John A. Acosta - jacosmusic.
Email: jacosmusic@gmail.com

Tuning: Standard

La intro se toca usando la escala pentatonica en Am (5to traste), Lo divido en 
frases numeradas, asi sera mas practico para uds.

INTRO

e|---8--5h8p5-----------5-----8-8-8--5h8p5-----------5----| 
B|------------8--5h8p5-----5---------------8--5h8p5-----5-|
G|--------------------------------------------------------|  FRASE NUMERO 1.
D|--------------------------------------------------------|
A|--------------------------------------------------------|
E|--------------------------------------------------------|

e|---------5---------------------5------------------------|
B|---------5--7----------5-------5--7----------5----------|
G|-----5h7----7--5h7p5---5----------7--5h7p5---5----------|  FRASE NUMERO 2. 
D|---7-----------------7----7----------------7----7-------|
A|--------------------------------------------------------|
E|--------------------------------------------------------|

e|----------------------------------------------------------------|
B|--------7b(9)r7-------7b(9)r7-------7b(9)r7b(9)r7b(9)r7b(9)r7---|
G|----5H7-7b(9)r7---5H7-7b(9)r7---5H7-7b(9)r7b(9)r7b(9)r7b(9)r7---|  FRASE 
D|--7-------------7-------------7---------------------------------| NUMERO 3.
A|----------------------------------------------------------------|
E|----------------------------------------------------------------|

ORDEN: FRASE 1 - FRASE 2 - FRASE 1 - FRASE 3.

CORO: Am

e|----------------------------------------------------------------|
B|----------------------------------------------------------------|
G|----------------------------------------------------------------|
D|------------2-----------2-----------2-------------2-------------|
A|--0-x-0-3p0---0-x-0-3p0---0-x-0-3p0---x-0-x-3-x-0---7-5-3-2-----|
E|----------------------------------------------------------------|

Luego en la segunda parte de la cancion va el coro normal, pero cambian las notas 
del corte para pasar al coro en Bm.

e|----------|-----------------------------------------------------|
B|----------|-----------------------------------------------------|
G|----------|-----------------------------------------------------|
D|----------|-----------4-----------4-----------4-------------4---|  2 VECES 
A|--7-5-4-3-|-2-x-2-5p0---2-x-2-5p2---2-x-2-5p2---x-2-x-5-x-2-----| 
E|----------|-----------------------------------------------------| 

Solo he transcrito la intro y el riff del coro puesto que son los mas relevantes en la cancion

el ritmo de la guitarra y los acordes en las estrofas son rasgueos al estilo tipico de Juanes.

ESPERO LES SEA UTIL Y DISFRUTEN ESTUDIANDO ESTE TAB! 

Es mi primer TAB, cualquier duda o correccion agradezco mucho si envian mensaje.

************************************

| /   slide up
| \   slide down
| h   hammer-on
| p   pull-off
| ~   vibrato
| +   harmonic
| x   Mute note
| b   Bend
| pb  Pre-bend
| br  Bend release
| pbr Pre-bend release
| brb Bend release bend

************************************
Tap to rate this tab
 
# A B C D E F G H I J K L M N O P Q R S T U V W X Y Z