Juanes - Yerbatero tab

-------------------------------------------------------------------------------
			     Yerbatero - Juanes
-------------------------------------------------------------------------------
Tabbed by:Manny Plascencia
Email:not important, just comment hahaha

Tuning: standard

Intro:
(I know, looks just like Zohan 23's but trust me, I got this by ear and it seems
as though this is the only way to play it so I'm not taking credit from Zohan 23...
I don't want to mess with the Zohan, no troubles please.)

e|-8-5h8p5----------5--|-8-8-8-5h8p5---------5--|-------------------------|
B|----------8-5h8p5--5-|-------------8-5h8p5--5-|-------7b8r7---------5---|
G|---------------------|------------------------|---5-7-7b8r7-5h7p5---5---|
D|---------------------|------------------------|-7-----------------7---7-|
A|---------------------|------------------------|-------------------------|
E|---------------------|------------------------|-------------------------|

e|---------------------|-8-8-8-5h8p5---------5--|-8-8-8-5h8p5---------5--|
B|-7b88r7---------5----|-------------8-5h8p5--5-|-------------8-5h8p5--5-|
G|-7b88r7-5h7p5---5----|------------------------|------------------------|
D|--------------7---7--|------------------------|------------------------|
A|---------------------|------------------------|------------------------|
E|---------------------|------------------------|------------------------|

e|---------------------------------------|
B|-------7br~-------7br~---------7br~~~~-|
G|---5-7-7br~---5-7-7br~-----5-7-7br~~~~-|
D|-7----------7------------7-------------|
A|---------------------------------------|
E|---------------------------------------|

That was the intro.

Chords:
   am   D   G   F  bm
e|--5---5---3---1---7-|
B|--5---7---3---1---7-|
G|--5---7---4---2---7-|
D|--7---7---5---3---9-|
A|--7---5---5---3---9-|
E|--5---x---3---1---7-|

Bass:
(Just mess with it, play a long. I'm not supposed to give you the whole song, just 
so you can use your creativity and make it your own)
   am          D
G|---------------------------|
D|-----2---------------------|
A|----3--------5---5-5-3-2---|
E|-5-5---5-0----5-5-5-----5--|

(These sound good if you do it fluidly enough)
*

e|---------|
B|---------|
G|---------|
D|---------|
A|-7-5-3-2-|
E|---------|

**

e|---------|
B|---------|
G|---------|
D|---------|
A|-7-5-4-3-|
E|---------|

Intro: am D

am
Le traigo el remedio para ese mal de amor que le estremece

              D
no se merece sufrir


si su pareja le dejo


ohhh

am
tengo toda clase de brebajes, plantas medicinales

                      D
las he traido desde muy lejanos bosques hasta aqui

           am
soy yerbatero

                            G
vengo a curar su mal de amores

                        D
soy el que quita los dolores

                     am
y habla con los animales

                      G
digame de que sufre usted

                     D
que yo le tengo un brebaje

                        *
que le devuelve el tono y lo pone

am
bieeeen bieeen bieeeeeeeeeen


bieeeen bieeen bieeeeeeeeeen

am
si a usted senor lo deja su mujer


untese en el alma pomadita de clavel


i para la senora que el marido ha sido infiel

*
no se preocupe busquese uno usted tambien


(intro riff and or chords)

am
sufre de depresion, mal de amor


lleva varias sin dormir

                                 D
y su dias no van bien en el trabajo


bajoooo

am
Anda moribundo, preocupado, cabizbajo, desenamorado


le tengo la solucion si le duele el corazon


no soy doctor


           am
soy yerbatero

                            G
vengo a curar su mal de amores

                        D
soy el que quita los dolores

                     am
y habla con los animales

                      G
digame de que sufre usted

                     D
que yo le tengo un brebaje

                        *         F
que le devuelve el tono y lo pone bien

am
bieeeen bieeen bieeeeeeeeeen


bieeeen bieeen bieeeeeeeeeen

am
si a usted senor lo deja su mujer


untese en el alma...


i para la senora que el marido ha sido infiel

**
no se preocupe busquese uno usted tambien

bm
bieeeen bieeen bieeeeeeeeeen


bieeeen bieeen bieeeeeeeeeen

am
si a usted senor lo deja su mujer


untese en el alma pomadita de clavel


i para la senora que el marido ha sido infiel

*
no se preocupe busquese uno usted tambien

(Intro Riff and or chords)

Outro: am
Tap to rate this tab
 
# A B C D E F G H I J K L M N O P Q R S T U V W X Y Z