Song name
# A B C D E F G H I J K L M N O P Q R S T U V W X Y Z

Juanes - Y No Regresas tab

ACORDES:
   G#5	       G#*	 D#5        C#5     	Fm
I---x----| I---x----| I---x----| I---x----| I---x----| 
I---x----| I---x----| I---x----| I---x----| I---x----|
I---X----| I---5----| I---6----| I---6----| I---1----|
I---6----| I---5----| I---8----| I---6----| I---3----|
I---6----| I---4----| I---8----| I---4----| I---3----| 
I---4----| I---4----| I---6----| I---4----| I---1----|

-------------------------------------------------------------
INTRO:

  G#m    G#*     D#         G#m    G#*     D#
E-------8---8-------------------8-----13--11--------|
B--9v-----8----6--3-3v------9v----8----------9--8v--|
G---------------------------------------------------|
D---------------------------------------------------|
A---------------------------------------------------|
E---------------------------------------------------|

----------------------------------------------------------

G#5   G#*  D#5
Es tan difícil tenerte
G#5   G#*  D#5
entre la vida, y la muerte
G#5   G#*  D#5
me duele que estes tan distante
G#5       G#*             D#5
llevando mi desesperanza a todas partes
-------------------------------------------------------------
PRE CORO:
C#5
Te heri yo lo se
perdona
G#5  
te heri yo lo se
D#5	         C#5
mis ojos se ven
         G#5  
cansados de llorar
D#5		     C#5
la rabia de este amor
----------------------------------------------------------------
CORO:
Fm		G#5
Y no regresas
Fm	D#5  	C#5
y no regresas
Fm	G#5      D#5	C#5	
no soy el mismo sin tu amor	

----------------------------------------------------------------
RIFF:

 G#m    G#*     D#         G#m    G#*     D#
E-------8---8-------------------8-----13--11--------|
B--9v-----8----6--3-3v------9v----8----------9--8v--|
G---------------------------------------------------|
D---------------------------------------------------|
A---------------------------------------------------|
E---------------------------------------------------|

----------------------------------------------------------------
G#5       G#*         D#5
Me duele que estés en silencio
G#5          G#*  
Hablemos sin hacernos preguntas
D#5
Hallemos el miedo
------------------------------------------------------------------
PRE CORO:
C#5
Te heri yo lo se
perdona
G#5  
te heri yo lo se
D#5	         C#5
mis ojos se ven
         G#5  
cansados de llorar
D#5		     C#5
la rabia de este amor
------------------------------------------------------------------
CORO:
Fm		G#5
Y no regresas
Fm	D#5  	C#5
y no regresas
Fm	 G#5     D#5	C#5	
no soy el mismo sin tu amor	

Fm		G#5
Y no regresas
Fm	D#5  	C#5
y no regresas
Fm	 G#5     D#5	C#5	  Fm    G#5
no soy el mismo sin tu amor	
------------------------------------------------------------------
PROPIEDAD DE NEFER ANDRES MUÑOZ SABOGAL
17/11/2010
-----------------------------------------------------------------
Tap to rate this tab
 
# A B C D E F G H I J K L M N O P Q R S T U V W X Y Z