Song name
# A B C D E F G H I J K L M N O P Q R S T U V W X Y Z

Juanes - La Soledad tab

  Am  G  F
|--5--3--1--------------------|
|--5--3--1--------------------|
|--5--4--2--------------------|
|--7--5--3--------------------|
|--7--5--3--------------------|
|--5--3--1--------------------|

Al inicio, arpegia un poco con Am y G

guitarra 2:
|-----------------------------------------------|
|---6~---3~---5~---1~---*1/3-3-3/5-3-1-3/5-3~---|
|-7--- 4----5--- 2------*2/4-4-4/5-4-2-4/5-4~---|
|-----------------------------------------------|
|-----------------------------------------------|
|-----------------------------------------------|
*aqui no estoy muy seguro, aunque suena bien.

|------------------------------------------|
|-5-------5-------5-------5----------------|
|--5-5p2---5-5p2---5-5p2---5-5p2-----------|
|--------------------------------5-2-------|
|------------------------------------5-0---|
|------------------------------------------|

si alguien quiere hacer una corrección, bienvenida sea.
nos ayudará a muchos.
Tap to rate this tab
 
# A B C D E F G H I J K L M N O P Q R S T U V W X Y Z