Song name
# A B C D E F G H I J K L M N O P Q R S T U V W X Y Z

Juanes - La Camisa Negra tab

Hello this is Smygli again and I tabbed this song recently and I'm 103% sure that
it is perfectly correct :)

_____________________________________________________________________________

Artist:      Juanes
Song title:  La Camisa Negra
Album:       Mi Sangre

_____________________________________________________________________________

Intro:

e|----2.-----2.-----2.-----2.-----2.-----2.-----2.-----2.--|
B|----2.-----2.-----2.-----2.-----2.-----2.-----2.-----2.--|
G|----2.-----2.-----2.-----2.-----2.-----2.-----2.-----2.--|
D|---------------------------------------------------------|
A|----------------------4---------------------------4------|
E|-2-------------2-------------2--------------2------------|


Interlude:
(lead guitar)

e|------------------------------------------------------------------|
B|------------------------------------------------------------------|
G|-1/2-2-----1/2-2-2.---1/2.---2.---2/4-4-----3/4-4-4.----3/4.---4.-|
D|-3/4-4-----3/4-4-4.---3/4.---4.---4/6-6-----5/6-6-6.----5/6.---6.-|
A|------------------------------------------------------------------|
E|------------------------------------------------------------------|


--------------------------------------------------------------------|
--------------------------------------------7.--7.--6~~ ------------|
--4h6-6-----4h6-6-6.----4h6.---6.---7---7---7.--7.--6~~ ------------|
--6/7-7-----6/7-7-7.----6/7.---7.---9---9-----------------9-7.--6---|
--------------------------------------------------------------------|
--------------------------------------------------------------------|

--------------------------------------------------------------------|
--------------------------------------------------------------------|
--------2.--2---2-6---6p2-----2---6-6p2-----2-----------------------|
--4-----------4-----------4--------------4--------------------------|
--------------------------------------------------------------------|
--------------------------------------------------------------------|

--------------------------------------------------------------------|
--------------------------------------------------------------------|
--------4-4.--4---4-7-7p4-----4---7-7p4-----4-----------------------|
--5/6-----------6---------6--------------6--------------------------|
--------------------------------------------------------------------|
--------------------------------------------------------------------|

--------------------------------------------------------------------|
--------------------------------------------------------------------|
-----2-2.--2---2-6---6p2-----2---6-6p2-----2------------------------|
--4----------4------------4-------------4---------------------------|
--------------------------------------------------------------------|
--------------------------------------------------------------------|

--------------------------------------------------------------------|
--------------------------------------------------------------------|
-------4-4-6.--6/.--6--6p4------------------------------------------|
--5/6-----------------------7.--6-----------------------------------|
--------------------------------------------------------------------|
--------------------------------------------------------------------|

-------------------------------------------------------------------|
--------2.------------------------2.-------------------------------|
------------2---2---------------------2---2------------------------|
--4-----------4---4----------4----------4---4---------4~~ ---------|
-----------------------4------------------------4------------------|
-------------------------------------------------------------------|

Interlude:
(rhythm guitar)

e|----2.-----2.-----2.-----2.-----2.-----2.-----2.-----2.--|
B|----2.-----2.-----2.-----2.-----3.-----3.-----3.-----3.--|
G|----2.-----2.-----2.-----2.-----4.-----4.-----4.-----4.--|
D|--------------------------------------------------4------|
A|----------------------4------2-------------2-------------|
E|-2-------------2-----------------------------------------|

------2.-----2.-----2.-----2.-----2.-----2.-----4.-----4.--|
------2.-----2.-----2.-----2.-----3.-----3.-----6.-----6.--|
------2.-----2.-----2.-----2.-----4.-----4.-----6.-----6.--|
--------------------------------------4-------------6------|
------------------------4------2-------------4-------------|
---2-------------2-----------------------------------------|

Play two times and then:

e|----2.-----2.-----2.-----2.-----2.-----2.-----2.-----2.--|
B|----2.-----2.-----2.-----2.-----2.-----2.-----2.-----2.--|
G|----2.-----2.-----2.-----2.-----2.-----2.-----2.-----2.--|
D|---------------------------------------------------------|
A|----------------------4---------------------------4------|
E|-2-------------2-------------2--------------2------------|



VERSES AND BRIDGES:

e|----2.-----2.-----2.-----2.-----2.-----2.-----2.-----2.--|
B|----2.-----2.-----2.-----2.-----3.-----3.-----3.-----3.--|
G|----2.-----2.-----2.-----2.-----4.-----4.-----4.-----4.--|
D|--------------------------------------------------4------|
A|----------------------4------2-------------2-------------|
E|-2-------------2-----------------------------------------|

------2.-----2.-----2.-----2.-----2.-----2.-----4.-----4.--|
------2.-----2.-----2.-----2.-----3.-----3.-----6.-----6.--|
------2.-----2.-----2.-----2.-----4.-----4.-----6.-----6.--|
--------------------------------------4-------------6------|
------------------------4------2-------------4-------------|
---2-------------2-----------------------------------------|



CHORUS:

e|-2-------2--------4---------2--|
B|-2-------4--------6---------4--|
G|-3-------4--------6---------4--| repeat that during the whole chorus!
D|-4-------4--------6---------4--|
A|-4-------2--------4---------2--| there is lead guitar on the chorus
E|-2-----------------------------| but I couldn't work ít out..


That is pretty much the whole song!!!! Hope you enjoyed :)
Tap to rate this tab
# A B C D E F G H I J K L M N O P Q R S T U V W X Y Z