Song name
# A B C D E F G H I J K L M N O P Q R S T U V W X Y Z

Juanes - La Luz tab

F#m
Strum repeatedly, listen to song to know how. 

E|----------4-4-------9-9---------|------------------------------|
B|--5-5----5---7----10----12-12-9-|6-9~--------------------------|
G|-6---6--6-------11--------------|------------------------------|
D|7-------------------------------|------------------------------|
A|--------------------------------|------------------------------|
E|--------------------------------|------------------------------|


E|--------------------------------|------------------------------|
B|--------------------------------|------------------------------|
G|-11-11--------------------------|11-11-11-11-11----------------|
D|-------11--7----7-------7--11---|---------------11-7---7-------|
A|--------------9---9---9---------|-------------------9----9-----|
E|--------------------------------|------------------------------|

E|--------------------------------|------------------------------|
B|--------------------------------|------------------------------|
G|------11-11---------------------|11-11-11-11-11-11-11----------|
D|--7-11------11-7----7-------7-11|---------------------11-7-7---|
A|9----------------9----9---9-----|-------------------------9--9-|
E|--------------------------------|------------------------------|

Columbian
Tap to rate this tab
 
# A B C D E F G H I J K L M N O P Q R S T U V W X Y Z