Guitaretab - guitar tabs
Song name
# A B C D E F G H I J K L M N O P Q R S T U V W X Y Z

Juanes - Ahi Le Va tab

here's the intro to this song and it repeats for most of the song
[ Tab from: http://www.guitaretab.com/j/juanes/60803.html ]
e---------------------------------|--------------------------|
b-------8------------8------------|-----8------------8-------|
g-------9------------9------------|-----9------------9-------|
d-------9------------9------------|-----9------------9-------|
a---7-------------7---------------|--7------------7----------|
e----------7--10--------7--7--10--|--------7--10-------7--7--|

e---------------------------------|----------------------------|
b------8-------------8------------|-----8------------8---------|
g------9-------------9------------|-----9------------9---------|
d------9-------------9------------|-----9------------9---------|
a---7-------------7---------------|--7------------7------------|
e----------7--10--------7--7--10--|--------7--10--------7--7---|
Related for Ahi Le Va tab
Advertisement will be closed in 10 seconds