Song name
# A B C D E F G H I J K L M N O P Q R S T U V W X Y Z

Juanes - Que Pasa tab

-----------------------------------------------------------------------------
                              Que Pasa - Juanes
-----------------------------------------------------------------------------


e-mail: juanes_fan1@hotmail.com

e|-7-------7-------9------------9---------------|
b|---10------10------9-7----------9-7-----------|
g|------9-------9------------9-------------7-9--|
d|------------------------11------------11------|
a|----------------------------------------------|
e|----------------------------------------------|
-
e|------------------------7-9-9h10-------------|
b|-7-9-10-9-7h9h7-7-9-10-----------9--7-9-7----|
g|------------------------------------------9--|
d|---------------------------------------------|
a|---------------------------------------------|
e|---------------------------------------------|

    A
e|--5--|
b|--5--|
g|--6--|
d|--7--|
a|--7--|
e|--5--|
Tap to rate this tab
 
# A B C D E F G H I J K L M N O P Q R S T U V W X Y Z