Juanito Alimana - La Respuesta tab

Afinacion DROP D

dadgbe


Riff 1
|--------------------------------|
|--------------------------------|
|--------------------------------|
|--------------------------------|
|--0---1--0--0----1-0------------|
|--0---1--0--0----1-0--3-0-4-3~~-|

Riff 2 (Estribillo)

|--------------------------------|
|--------------------------------|
|--------------------------------|
|--------------------------------|
|--0-0-1-0-3-4-3-----------------|
|--0-0-1-0-3-4-3-----------------|

Riff 3

|------------------------------------|
|------------------------------------|
|------------------------------------|
|------------------------------------|
|------------------------------------|
|-0-5-6-0-3-5-0-5-6-0-6-8-0-5-6------|

Riff 4

|------------------------------------|
|------------------------------------|
|------------------------------------|
|------------------------------------|
|-6-0-0-0-0-6-0-5-6------------------|
|-6-0-0-0-0-6-0-5-6------------------|
Tap to rate this tab
 
# A B C D E F G H I J K L M N O P Q R S T U V W X Y Z