Song name
# A B C D E F G H I J K L M N O P Q R S T U V W X Y Z

Judas Iscariot - Eternal Blisseternal Death tab

Band:  Judas Iscariot
Album: Heaven In Flames
Song:  Eternal Bliss...Eternal Death

Copyright (c)  Red Stream Inc. 1999
Version 1.0 - 25.09.2007

Transcribed By: evilkin
Email:          petteriketola@hotmail.com

.  - palm mute           /  - slide up to
\  - slide down to       ~  - vibrato
h  - hammer on           b  - Bend
p  - pull off            Suffixes for bend
t  - tap                 f  - full bend    h - half bend
ph - pinched harmonic    q  - quarter bend t - tap bend
*  - see comment         ^  - Hold bend    r release bend
x  - Stuccatto           ~  - vibrato bend
,  - slight palm mute    () - ghost note, sustained note
"  - tremolo note        <> - Trill

Tuning E A D G B E

RIFF A     let ring				   let ring  let ring  let ring
|----------6---------------------------------------1---------1---------1--------|
|----------6---------------------------------------1---------1---------1--------|
|----------6---------------------------------------1---------1---------1--------|
|8--8-8-8--8--8-8-8--4--4-4-4--7--7-7-7--3--3-3-3--3--3-3-3--3--3-3-3--3--3-3-3-|
|8--8-8-8--8--8-8-8--4--4-4-4--7--7-7-7--3--3-3-3--3--3-3-3--3--3-3-3--3--3-3-3-|
|6--6-6-6--6--6-6-6--2--2-2-2--5--5-5-5--1--1-1-1--1--1-1-1--1--1-1-1--1--1-1-1-|

RIFF B
|------------------------------------------|
|------------------------------------------|
|------------------------------------------|
|3--3-3-3--3--3-3-3--4--4-4-4--4--4-4-4----|
|1--1-1-1--1--1-1-1--1--1-1-1--0--0-0-0----|
|------------------------------------------|

RIFF B.1
|-------------------------------------------------------------------------------|
|-------------------------------------------------------------------------------|
|-------------------------------------------------------------------------------|
|3--3-3-3--3--3-3-3--4--4-4-4--4--4-4-4--3--3-3-3--3--3-3-3--4--4-4-4--3--3-3-6-|
|1--1-1-1--1--1-1-1--1--1-1-1--4--4-4-4--1--1-1-1--1--1-1-1--1--1-1-1--3--3-3-6-|
|------------------------------2--2-2-2--------------------------------1--1-1-4-|

RIFF C	   let ring  let ring  let ring		   let ring  let ring
|----------2---------5---------1-------------------2---------5------------------|
|----------2---------5---------1-------------------2---------5------------------|
|----------2---------5---------1-------------------2---------5------------------|
|4--4-4-4--4--4-4-4--7--7-7-7--3--3-3-3--4--4-4-4--4--4-4-4--7--7-7-7--3--3-3-6-|
|4--4-4-4--4--4-4-4--7--7-7-7--3--3-3-3--4--4-4-4--4--4-4-4--7--7-7-7--3--3-3-6-|
|2--2-2-2--2--2-2-2--5--5-5-5--1--1-1-1--2--2-2-2--2--2-2-2--5--5-5-5--1--1-1-4-|

RIFF D
|----------------------------------------|
|----------------------------------------|
|----------------------------------------|
|12-121212-12-121212-11-111111-11-111111-|
|9--9-9-9--9--9-9-9--9--9-9-9--9--9-9-9--|
|7--7-7-7--7--7-7-7--7--7-7-7--7--7-7-7--|

---------------------------------------|
---------------------------------------|
---------------------------------------|
12-121212-12-121212-11-111111-12-------|
9--9-9-9--9--9-9-9--9--9-9-9--9--9--9--|
7--7-7-7--7--7-7-7--7--7-7-7--7--7--7--|

RIFF E
|-------------------------------------------------------------------------------|
|-------------------------------------------------------------------------------|
|8-------------------10------------------11------------------10--------11-------|
|8--8-8-8--8--8-8-8--8--8-8-8--8--8-8-8--8--8-8-8--8--8-8-8--8--8-8-8--8--8-8-8-|
|6--6-6-6--6--6-6-6--6--6-6-6--6--6-6-6--6--6-6-6--6--6-6-6--6--6-6-6--6--6-6-6-|
|-------------------------------------------------------------------------------|

RIFF F
|-------------------------------------------------------------------------------|
|-------------------------------------------------------------------------------|
|3--3-3-3--3--3-3-3------------6--6-6-6--3--3-3-3--3--3-3-3------------6--6-6-8-|
|3--3-3-3--3--3-3-3--4--4-4-4--6--6-6-6--3--3-3-3--3--3-3-3--4--4-4-4--6--6-6-8-|
|1--1-1-1--1--1-1-1--4--4-4-4--4--4-4-4--1--1-1-1--1--1-1-1--4--4-4-4--4--4-4-6-|
|--------------------2--2-2-2--------------------------------2--2-2-2-----------|

RIFF G
|------------------------------4--4-4-4--------------------------------4--4-4-4-|
|-------------------------4-4--4--4-4-4---------------------------4-4--4--4-4-4-|
|6--6-6-6--6--6-6-6-----4-4-4--4--4-4-4--6--6-6-6--6--6-6-6-----4-4-4--4--4-4-4-|
|6--6-6-6--6--6-6-6--6--6-6-6--6--6-6-6--6--6-6-6--6--6-6-6--6--6-6-6--6--6-6-6-|
|4--4-4-4--4--4-4-4--6--6-6-6--6--6-6-6--4--4-4-4--4--4-4-4--6--6-6-6--6--6-6-6-|
|--------------------4--4-4-4--4--4-4-4----------------------4--4-4-4--4--4-4-4-|

------------------------------------------------------------------------------|
------------------------------------------------------------------------------|
9--9-9-9--9--9-9-9--6--6-6-6--6--6-6-6--9--9-9-9--9--9-9-9--6--6-6-6--6--6-6-6|
9--9-9-9--9--9-9-9--6--6-6-6--6--6-6-6--9--9-9-9--9--9-9-9--6--6-6-6--6--6-6-6|
7--7-7-7--7--7-7-7--4--4-4-4--4--4-4-4--7--7-7-7--7--7-7-7--4--4-4-4--4--4-4-4|
------------------------------------------------------------------------------|


SONG STRUCTURE:
RIFF A   4x
RIFF B   8x
RIFF C   2x
RIFF B   8x
RIFF C   2x
RIFF A   4x
RIFF B   8x
RIFF C   2x
RIFF B   8x
RIFF C   2x
RIFF A   4x
RIFF B.1 2x
RIFF D+E 4x
RIFF F   2x
RIFF D+E 4x
RIFF G   7x   fadeout at 7th

END
Tap to rate this tab
 
# A B C D E F G H I J K L M N O P Q R S T U V W X Y Z