Song name
# A B C D E F G H I J K L M N O P Q R S T U V W X Y Z

Judas Priest - Shadows In The Flame tab

-----------------------------------------------------------|
-----------------------------------------------------------|
-----------------------------------------------------------|
------5------5----------8-----8---------3-----3------------|
----5------5-----3----8-----8-----8---3-----3-----3--------|
--3-----3------5----6-----6-----6---1-----1-----1----------|

-----------------------------------------------------------|
-----------------------------------------------------------|
-----------------------------------------------------------|
------5-----5----------------------------------------------|
--3-5---3-5-----5------------------------------------------|
--------------1--------------------------------------------|

That's it! the same lick throughout the whole song... 100% accurate
Tap to rate this tab
 
# A B C D E F G H I J K L M N O P Q R S T U V W X Y Z