Guitaretab - guitar tabs
Song name
# A B C D E F G H I J K L M N O P Q R S T U V W X Y Z

Judas Priest - Genocide tab

---------------------------------------------------------------------------------------
			     SONG NAME Genocide- Unleashed in the East
                             Band Name Judas Priest 
---------------------------------------------------------------------------------------
Tabbed by: Rob Yglesias
Email:Rhamiyglesias@msn.co
|   /  slide up                                 \  slide down                          |
|   h  hammer-on                                p  pull-off                            |
|   ~  vibrato                                  +  harmonic                            |
|   x  Mute note                                ^  Bend(pitch not indicated)           |
========================================================================================

Tuning: Standard
    Intro                             Play 2 Xs                  Play 2 Xs
e|----------------------|---------------------------|----------------------------------|
B|----------------------|---------------------------|----------------------------------|
G|-2---2---2--2---2---2-|---------------------------|--------------------------------2-|
D|-2---2---2--2---2---2-|-7-7-77-05-5-55-04-4-44-022|-22-2-2-2-2--5-7--22-2-2-2------2-|
A|-00-000000--00-000000-|--0-0-----0-0-----0-0-----0|-00-0-0-0-0-03-5--00-0-0-0-0-3--0-|
E|---3~---------3~------|---------------------------|------------------------------3~--|

   Riff A    Play 3 Xs         ending           Riff B      Play 2Xs
e|----------------------|------------------|-------------------------------------------|
B|----------------------|------------------|-------------------------------------------|
G|-2--------------------|-2----------------|-----------7-------------9-----------------|
D|-2-5-77-5--22-----2-5-|-2-5-77-5--22-----|-----------5-------------7-----------------|
A|-0-3-55-3-000-----0-3-|-0-3-55-3-000-----|-2------------2----------------------------|
E|-------------5p3-0----|-------------5p3-0|-0-0-0-3p0----0-0-0-3p0--------------------|

   Riff C                       Riff  D Play 4 Xs                solo 1
e|---------------------------|-----------------------|---------------------------------|
B|---------------------------|-8-8-8-----8-8-8----13~|---15^15^-12h15p12--12-----------|
G|-457-457-557-557-5-4-------|-7-7-7-----7-7-7----12~|------------------14--14-12------|
D|---------------------7-5-7~|-5-5-5\7~--5-5-5\7~----|-22------------------------14~---|
A|---------------------------|--0-0-----0-0-0--------|-22------------------------------|
E|---------------------------|-----------------------|-00------------------------------|

e|----------------------------------|--------------------------------------------------|
B|----------------------------------|---20^20^-20p19p17--17-15^------------------------|
G|----4^5^-4-2-0h2p0----------------|------------------19------------------------------|
D|-22---------------2-0h2p0---------|-22-----------------------------------------------|
A|-22----------------------2-0h2p0--|-22-------------------------2--------3~---2~------|
E|-00-----------------------------3~|-00------------------------0-0-3~-0-3--0-3--5-3h5~|

       Solo 2
e|----12-------------------------------------------------------------------------------|
B|-15^--15-12--------------------------------------------------------------------------|
G|------------14^--12-14---------------12---------12---------12------------------------|
D|----------------------14-12~----12h14--14-12h14---14-12h14---14-12h14---------12h14--|
A|----------------------------12h14----------------------------------------12h14-------|
E|-------------------------------------------------------------------------------------|
[ Tab from: http://www.guitaretab.com/j/judas-priest/125810.html ]
e|-------------------------------------------------------------------------------------|
B|--------------------12~-----------------------------14~-12---------------------------|
G|--------------------12~-----------------------------14~-12---------------------------|
D|------12h14----12h14-------12h14----12h14-----12H14-----------12h14-----12H14--------|
A|-12h14-----12h14------12h14----12h14-----12H14------------12h14-----12H14----12H14---|
E|-------------------------------------------------------------------------------------|



e|--------------------------------------------------------------------15~--------------|
B|----------12~------------------------------12-14-14P12---------15-17--17------15-17--|
G|----------12~------------------------------12-14-14P1214~-14/16----------14/16-------|
D|-----12H14--------12H14----12H14------12H14-----------14~----------------------------|
A|12H14--------12H14-----12H14-----12H14-----------------------------------------------|
E|-------------------------------------------------------------------------------------|
                                                                             crescendo
e|-17~15----------14~----------------------------15~------------17^15-----17^--17^--17^|
B|-----------15-17---17-15---15-15-17^------15-17--17------15-17-----17-15---15---15---|
G|------14/16-------------16^----------14/16----------14/16----------------------------|
D|-------------------------------------------------------------------------------------|
A|-------------------------------------------------------------------------------------|
E|-------------------------------------------------------------------------------------|
  4 Xs     8 Xs      2 Xs        pick slide       Riff E
e|------|--------|--------------------------|------------------------------------------|
B|------|--------|------------------/-------|------------------------------------------|
G|----7-|---7--7-|----2-2----------/--------|----------------------------------5-------|
D|-2--5-|---5--5-|-22-2--5p2h5~---/---------|--2---------2---------2-----------5-------|
A|-0-0--|-00-00--|-00-0----------/----------|--0-00-3p0--0-00-3p0--0--00-3p0-0-3-------|
E|------|--------|--------------/-----------|------------------------------------------|
   Ending Riff 8xs slowing        (Last time)              crescendo
e|----------------------------|--------------------------------------------------------|
B|----------------------------|--------------------------------------------------------|
G|----------------------------|------------------------------------------------------2-|
D|-8---7---5-----8---7---5----|---8---7---5---4---22-222222222222222222222222--------2-|
A|-6-0-5-0-3-0-7-6-0-5-0-3-77-|-7-6-7-5-7-3-7-2-7-00-000000000000000000000000--------0-|
E|-------------5-----------55-|-5---5---5---5---5--------------------------------------|

Intro
Riff A
Mercenary battalions, Are poised to strike us down
Riff  A
Terminations conquest, Upon us now full grown
Riff B
Save me, my heart's open wide, Help me, no question of pride
Riff B
Save me, my people have died, Total genocide
Riff A
Devastation hungers, She waits to leap to earth
Riff A
Imminent liquidation, Before the grand rebirth
Riff B
Save me, My heart's open wide, Help me, no question of pride 
Riff B                                       Riff c
Save me, my people have died, Total genocide
Riff D
Sin after sin I have endured, Yet the wounds I bear are the wounds of love
Riff D
Frantic mindless zombies, Grab at fleeting time
Riff D
Lost in cold perplex ion, Waiting for the sign
Solo 1
Riff A
Generations tremble, Clinging face to face, Helpless situation, To end the perfect race
Riff A
Flashing senseless sabers, Cut us to the ground, Eager for the life blood, Of all who can be found
Riff B
Save me, my heart's open wide, Help me, no question of pride, Save me, my people have died
Total genocide
Solo 2
Riff E
Slice to the left, slice to the right, None to retaliate, none will fight
Riff E 
Chopping at the hearts, snuffing out the lives, This race departs, no one will survive
Riff E
Heads to the feet, feet to the air, Souls in the soil, heavy in despair
Riff E
End of all ends, body into dust, To greet death friends, extinction is a must
Riff A 
Ending Riff
Related for Genocide tab
Genocide chords by Judas Priest