Song name
# A B C D E F G H I J K L M N O P Q R S T U V W X Y Z

Judas Priest - Fight For Your Life tab

tuning:standard
tabbed by:shredder
artist:Judas priest
album:Hell bent for leather (remastered)
song:Fight for your life
year:2001 (1978)

This song is the bonus studio track on the remastered priest album "Hell bent for leather".

intro (main rhythm figure)
E|-----||-------------------------------||-------------|
B|-----||-------------------------------||-------------|
G|-----||-------------------------------||-------------|
D|-----||-------------------------------||-------------|
A|-2-5-||-7---7-5---2-5-7---3-2-0-----2-||-3-2-0-5-3-5-|
E|-0-3-||-5---5-3---0-3-5---------3-0---||-------------|
repeat the main rhythm figure for the verses.  Play the last part just before you hit
pre-chorus

Intro solo
E|--------------------------------20-19-17--------20-(17)~|
B|-----------------------------------------20~~17---------|
G|-5-------5=5-5-7-5=/17-17-17-17-------------------------|
D|-5-------5=5-5-7-5=/17-17-17-17-------------------------|
A|---3-3-3------------------------------------------------|
E|---3-3-3------------------------------------------------|

Pre-chorus
E|----------------------------------------------------------------------|
B|----------------------------------------------------------------------|
G|-7-----5-----7-------7---7---5---4----7-----5-----7-------7---5---4---|
D|-7-----5-----7-------7---7---5---4----7-----5-----7-------7---5---4---|
A|---5-5---5-5---5-5-5---5---5---5---5----3-3---3-3---3-3-3---3---3---3-|
E|----------------------------------------------------------------------|
     x x   x x   x x x   x   x   x   x    x x   x x   x x x   x   x   x

E|---------------|
B|---------------|
G|---------------|
D|-7-5-----------|
A|-----7-5-------|
E|---------7-5-3-|

Chorus
E|----------------------||---------||-------------|
B|----------------------||---------||-------------|
G|-2-2-2-2--------------||---------||-------------|
D|-2-2-2-2---2-2-2-3--5-||---------||-------2-----|
A|-0-0-0-0---2-2-2-3--5-||-3-2-0---||-------------|
E|-----------0-0-0-1--3-||-------3-||-4-0-4---0-3-|
Play the chorus twice (the first measure)
after the first time play the first ending (second measure)
after the second time play the second ending (third measure)

then play verse
pre-chorus
chorus

Different rhythm under solo
E|----------------|
B|----------------|
G|-5--2-2---5-----|
D|-5--2-2---5-5-5-|
A|-3--0-0---3-5-5-|
E|------------3-3-|
repeat for that part

okay you may say that there is a lot missing from this tab and that is because that this
is an early demo of the priest song "Rock hard ride free".  I only tabbed the parts
were different from the song because there are plenty of "Rock hard ride free" tabs up 
and the parts are basically the same and i found it a waste of time to just tab out
version of "rock hard ride free" so you should enjoy just this.
~shredder
Tap to rate this tab
 
# A B C D E F G H I J K L M N O P Q R S T U V W X Y Z