Song name
# A B C D E F G H I J K L M N O P Q R S T U V W X Y Z

Judas Priest - Hard As Iron tab

Help us improve GuitareTab! Take a short survey!
Intro- both guitars

e|------------------------------------------------|
b|------------------------------------------------|
g|-9----------------------------------------------|
d|-9----------------------------------------------|
a|-7--------10-------9-------7-------9-------10---|
e|--0-0-0-0----0-0-0---0-0-0---0-0-0---0-0-0------|


e|------------------------------------------------|
b|------------------------------------------------|
g|-9----------------------------------------------|
d|-9----------------------------------------------|
a|-7--------10-------9-------7-------9-------10---|
e|--0-0-0-0----0-0-0---0-0-0---0-0-0---0-0-0------|

e|-----------------------------------------------|
b|-----------------------------------------------|
g|-7-5-------------------------------------------|
d|-7-5-------------------------------------------|
a|-5-3-------5-------4-------2-------4-------5---|
e|-----3-3-3---3-3-3---3-3-3---3-3-3---3-3-3-----|

e|--------------------------------------------|
b|--------------------------------------------|
g|-7------------------------------------------|
d|-7--------5-------4-------2-------4-------5-|
a|-5-0-0-0----0-0-0---0-0-0---0-0-0---0-0-0---|
e|--------------------------------------------|

e|---------|
b|---------|
g|-7/4---9-|
d|-7/4---9-|
a|-5/2---7-|
e|---------|

Verse

e|-----------------------------|
b|-----------------------------|
g|-----------------------------|
d|-2------5-------7-8--7/8-5-7-|X2
a|-2------5-------7-8--7/8-5-7-|
e|---0-0-0--0-0-0--------------|

e|--------------------------------------|
b|--------------------------------------|
g|-5---------5---------5--7---------5-4-|
d|-3-3-3-3-3-3-3-3-3-3-3--5-5-5-5-5-5-5-|
a|--------------------------------------|
e|--------------------------------------|

e|-------------------------|
b|-------------------------|
g|-2---5---4---------------|
d|-0---0---2-----2-2---3-3-|
a|---------------2-2---3-3-|
e|---------------0-0---1-1-|

e|-----------------------------|
b|-----------------------------|
g|-----------------------------|
d|-2------5-------7-8--7/8-5-7-|X2
a|-2------5-------7-8--7/8-5-7-|
e|---0-0-0--0-0-0--------------|

e|--------------------------------------|
b|--------------------------------------|
g|-5---------5---------5--7---------5-4-|
d|-3-3-3-3-3-3-3-3-3-3-3--5-5-5-5-5-5-5-|
a|--------------------------------------|
e|--------------------------------------|

e|-------------------------|
b|-------------------------|
g|-2---5---4---------------|
d|-0---0---2-----2-2---3-3-|
a|---------------2-2---3-3-|
e|---------------0-0---1-1-|

Pre-Chorus

  P.M.______________________________________    
e|------------------------------------------|
b|------------------------------------------|
g|------------------------------------------|
d|-3-------3-------3-------3-------3-------3|
a|-3-------3-------3-------3-------3-------3|
e|-1-1-1-1-1-1-1-1-1-1-1-1-1-1-1-1-1-1-1-1-1|

  P.M.______________________________________
e|------------------------------------------|
b|------------------------------------------|
g|------------------------------------------|
d|-7-------7-------7-------7-------7-------7|
a|-7-------7-------7-------7-------7-------7|
e|-5-5-5-5-5-5-5-5-5-5-5-5-5-5-5-5-5-5-5-5-5|

  P.M.______________________________________
e|------------------------------------------|
b|------------------------------------------|
g|------------------------------------------|
d|-5-------5-------5-------5-------5-------5|
a|-5-------5-------5-------5-------5-------5|
e|-3-3-3-3-3-3-3-3-3-3-3-3-3-3-3-3-3-3-3-3-3|

e|--------------------|
b|--------------------|
g|-9--9--7--9---------|
d|-9--9--7--9---------|
a|-7--7--7--7---------|
e|--------------0---4-|
Related for Hard As Iron tab