Song name
# A B C D E F G H I J K L M N O P Q R S T U V W X Y Z

Judas Priest - Turn On Your Light tab

Help us improve GuitareTab! Take a short survey!
This is my first tab, its not finished but im still working on it.



INTRO
E----------0--------------0-----------------2------------------------|
B--------3---3--------------1-------------3---3----------------------|
G--------------0-------0--------------2---------0--------------------|
D------1-------------2--------------2-------------------0-----0------|
A----1-------------3----------3-2-0-------------------0-----0--------|
E--0------------------------------------2-----------3-----2-----3-2--|

VERSE
E----------0--------------0--------------0--------------0------|
B--------3---3----------3---3----------3---3----------3---3----|
G--------------0--------------0--------------0--------------0--|
D------1--------------1--------------1--------------1----------|
A----1--------------1--------------1--------------1------------|
E--0--------------0--------------0--------------0--------------|


E----------0-----------0--------------0-------------------------|
B--------3---3-------3---3--------------1-----------1-----------|
G--------------0-----------2--------0-------------2-------------|
D------1----------------------0---2-------------2--------2------|
A----1------------2-------------3---------3-2-0--------3--------|
E--0-------------------------------------------------------3-2--|


E----------0--------------0------|
B--------3---3----------3---3----|
G--------------0--------------0--|
D------1--------------1----------|
A----1--------------1------------|
E--0--------------0--------------|


E----------0-----------0--------------0-------------------------|
B--------3---3-------3---3--------------1-----------1-----------|
G--------------0-----------2--------0-------------2-------------|
D------1----------------------0---2-------------2--------2------|
A----1------------2-------------3---------3-2-0--------3--------|
E--0-------------------------------------------------------3-2--|


E----------0--------------0------|
B--------3---3----------3---3----|
G--------------0--------------0--|
D------1--------------1----------|
A----1--------------1------------|
E--0--------------0--------------|

That's all, any feedback welcome.
Related for Turn On Your Light tab