Song name
# A B C D E F G H I J K L M N O P Q R S T U V W X Y Z

Judas Priest - Devils Child tab

--------------------------------------------------
| Devil's Child [Intro] by Judas Priest          |
| 1982 Screaming for Vengeance album             |
| Tab by Emil Dyrvik - emilgd92[at]hotmail.com   |
| 100% correct tab, seen on this live recording: |
| http://www.youtube.com/watch?v=x3ZqF4NB9KQ     |
--------------------------------------------------



E|----------------|----------------|----------------|
B|----------------|---3------------|----------------|
G|-2--2-----5-----|---2-----2--2---|---5------------|
D|-2--2-----5--5--|---0-----2--2---|---5--5---------|
A|-0--0-----3--5--|---------0--0---|---3--5---------|
E|-------------3--|----------------|------3---------|


E|----------------|----------------|----------------|
B|----------------|---3------------|----------------|
G|-2--2-----5-----|---2-----2--2---|---5------------|
D|-2--2-----5--5--|---0-----2--2---|---5--5---------|
A|-0--0-----3--5--|---------0--0---|---3--5---------|
E|-------------3--|----------------|------3---------|


E|----------------|
B|----------------|
G|-2-2-2----------|
D|-2-2-2----------|
A|-0-0-0----------|
E|----------------|


Verse comes here
Tap to rate this tab
# A B C D E F G H I J K L M N O P Q R S T U V W X Y Z