Song name
# A B C D E F G H I J K L M N O P Q R S T U V W X Y Z

Judas Priest - Cheater tab

JUDAS PRIEST - CHEATER
                           (tabbed by Anton)

 Guittar I Plays:
|----------------------------------------------------|
|----------------------------------------------------|
|----------------------------------------------------|
|--------------------------5---------------7--7-7-5--|
|----7-7---7-7---7-7--5h7-------7-7---7-7------------|
|--0-----0-----0--------------0-----0----------------|
   . . . . . . . . .          . . . . . .

 Guittar II Plays:
|----------------------------------------------------|
|----------------------------------------------------|
|----------------------------------------------------|
|--2-----2-----2--------0h2--2-----2-----------------|
|--2-----2-----2-----0h2-----2-----2-------7--7-7-5--|
|--0-0-0-0-0-0-0-0-0---------0-0-0-0-0-0---5--5-5-3--|
   . . . . . . . . .         . . . . . . 


 Both Guittars plays this the entire song


   ironmaiden666666@ya.ru

Tap to rate this tab
# A B C D E F G H I J K L M N O P Q R S T U V W X Y Z