Song name
# A B C D E F G H I J K L M N O P Q R S T U V W X Y Z

Judas Priest - Cyberface tab

/ Judas Priest / Demolition (2001) / Cyberface guitar tab

Judas Priest - Cyberface
Tabbed By: Anton
Email: ironmaiden666666@ya.ru

Tuning: Half Step Down (Eb Ab Db Gb Bb Eb)


Eb|------------------------------------------------|
Bb|------------------------------------------------|
Gb|------------------------------------------------|
Db|------------------------------------------------|       X4
Ab|--4/5--4-4-------4/5-4-4-----2p-4/5--4-4--------|
Eb|--2/3--2-2-------2/3-2-2-----0--2/3--2-2--------|

Eb|--------------------------------|
Bb|--------------------------------|
Gb|--------------------------------|
Db|--------------------------------|
Ab|-2---9/10--2--10---2---10/9-----|      X2
Eb|-0---7/8---0--8----0---8/7------|
Tap to rate this tab
 
# A B C D E F G H I J K L M N O P Q R S T U V W X Y Z