Song name
# A B C D E F G H I J K L M N O P Q R S T U V W X Y Z

Judas Priest - Alone tab

Judas Priest - Alone (intro) 

     
E||----------------------|-----------------------|----------------------|
B||----------------------|-----------------------|----------------------|
G||----------------------|-----------------------|----------------------|
D||--9----9----9----7----|--9----10----9----9----|--9----9----7----9----|
A||--7----7----7----7----|--7-----7----7----7----|--7----7----7----7----|
E||----------------------|-----------------------|----------------------|


      
-----------------------|----------------------|----------------------|
-----------------------|----------------------|----------------------|
-----------------------|----------------------|----------------------|
--10----7----7----7----|--7----5----7----9----|--7----5----5----5----|
---7----7----5----5----|--5----5----5----5----|--5----3----3----3----|
-----------------------|----------------------|----------------------|


              
----------------------|----------------------|-------||
----------------------|----------------------|-------||
----------------------|----------------------|-------||
--3----5----7----3----|----------------------|-------||
--3----3----3----3----|----------------------|-------||
----------------------|--0----3----2----0----|-------||

ironmaiden666666@ya.ru


Tap to rate this tab
# A B C D E F G H I J K L M N O P Q R S T U V W X Y Z