Song name
# A B C D E F G H I J K L M N O P Q R S T U V W X Y Z

Judas Priest - Better By You Better Than Me tab

-------------------------------------------------------------------------------
			     Better By You, Better Than Me- Judas Priest
-------------------------------------------------------------------------------
Tabbed by:Jacob

Tuning: EADGBe

REALIZED THERE WAS A BIG LACK OF DECENT TABS FOR THIS CLASSIC

I THINK THIS IS PRETTY SPOT ON, MAYBE A COUPLE OF MINOR MISTAKES, JUST LISTEN TO 
THE SONG TO HEAR HOW IT SOUNDS. 

INTRO/ MAIN RIFF

e|-----------------------------------------------------|
B|-----------------------------------------------------|
G|-----------------5-----------------------------------|
D|--5h7-7777-7-7-7------5h7-7777--7-5------------------|
A|------------------------------------7--7-5-----------|
E|--------------------------------------------8--------|

VERSE

e|-----------------------------------------------------|
B|-----------------------------------------------------|
G|-----------------5-----------------------------------|
D|--5h7-7777-7-7--------5h7-7777--7-5------------------|
A|------------------------------------7--7-5-----------|
E|--------------------------------------------8--------|
 
 
e|-----------------------------------------------------|
B|-----------------------------------------------------|
G|------------------5-----------------3----------------|
D|---5H7-7777-7-7-7------3H5-5555-5-5---5--------------|
A|-----------------------------------------------------|
E|-----------------------------------------------------|

CHORUS

e|-----------------------------------------------------|
B|-----------------------------------------------------|
G|--2------7------10----9--9--9------------------------|
D|--2------7------10----9--9--9------------------------|
A|--0------5------8-----7--7--7------------------------|
E|-----------------------------------------------------|
 |
e|------------------------b11--b11*--------------------|
B|-----------------------------------------------------|
G|--2------7------10----b9-----------------------------|
D|--2------7------10-----------------------------------|
A|--0------5------8------------------------------------|
E|-----------------------------------------------------|

BRIDGE

e|-----------------------------------------------------|
B|-----------------------------------------------------|
G|----------------------5/3----------------------------|
D|-3/5-----5-----5------5/3----------------------------|
A|-3/5-----5-----5------3/1----------------------------|
E|-1/3--33-3--33-3--33---------------------------------|
        ..    ..    ..
e|-----------------------------------------------------|
B|-----------------------------------------------------|
G|------------------------3/5--------------------------|
D|-3/5-----5-----3/5------3/5--------------------------|
A|-3/5-----5-----3/5------1/3--------------------------|
E|-1/3--33-3--33-1/3--3--------------------------------|
        ..    ..      .
e|-----------------------------------------------------|
B|-----------------------------------------------------|
G|----------------------5/3----------------------------|
D|-3/5-----5-----5------5/3----------------------------|
A|-3/5-----5-----5------3/1----------------------------|
E|-1/3--33-3--33-3--33---------------------------------|
        ..    ..    ..
e|-----------------------------------------------------|
B|-----------------------------------------------------|
G|------------------------------7-7-7------------------|
D|-3/5-----5-----5-------7------7-7-7------------------|
A|-3/5-----5-----5-------7------5-5-5------------------|
E|-1/3--33-3--33-3--33---5-----------------------------|
        ..    ..    ..

SLOW CHORUS

e|-----------------------------------------------------|
B|-----------------------------------------------------|
G|--3-3--2-2------9---9--9--9--------------------------|
D|--3-3--2-2------9---9--9--9--------------------------|
A|--1-1--0-0------7---7--7--7--------------------------|
E|-----------------------------------------------------|

INTRO/MAIN RIFF
VERSE
CHORUS
MAIN RIFF
VERSE
CHORUS
BRIDGE
SLOWER CHORUS
VERSE
CHORUS
MAIN RIFF
BRIDGE
SLOWER CHORUS

| /  slide up
| \  slide down
| h  hammer-on
| p  pull-off
| ~  vibrato
| +  harmonic
| x  Mute note
===============================================================================
Tap to rate this tab
# A B C D E F G H I J K L M N O P Q R S T U V W X Y Z