Song name
# A B C D E F G H I J K L M N O P Q R S T U V W X Y Z

Judas Priest - Shadows In The Flame tab

-----------------------------------------------------------|
-----------------------------------------------------------|
-------0-------0----0-------3-----3---3--------------------|
-----0-------0------------3-----3------------3-----3----3--|
------------------0----1-----1----1--------3-----3---------|
--3-------3-----------------------------1------1-----1-----|

-----------------------------------------------------------|
-----------------------------------------------------------|
------0----------------------------------------------------|
----0----------------0-------------------------------------|
--3-----(3)----3-------------------------------------------|
-------------1----2----------------------------------------|


There is another copy of this on this site but the author didn't listen to the bass line 
the guitar first and then try to add the rest of the notes
Play the E and A strings only to get the feel and then the rest will fall into place for 
-- enjoy!!!
Tap to rate this tab
# A B C D E F G H I J K L M N O P Q R S T U V W X Y Z