Song name
# A B C D E F G H I J K L M N O P Q R S T U V W X Y Z

Judas Priest - Come And Get It tab

Tempo: 137 BPM

E||------------------------------|
B||--(3)-----------(3)-----------|
G||---3-------------3------------|
D||---3---5--5--5---3---5--5--5--|
A||------------------------------|
E||------------------------------|
         Pm-----|      Pm------|
---------------------------------|
-------------(5)~--L--(3)--------|
--3---5---3---5~---L---3---------|
--3---5---3---5~---L---3---5--5--|
-----(5)-------------------------|
---------------------------------|
    
---------------------------------------||
-----(3)-------------------------------||
------3-------------3-----3------------||
--5---3---5--5--5---3--5--3--2----3----||
-----------------------------2----3----||
-----------------------------0----1----||
Tap to rate this tab
# A B C D E F G H I J K L M N O P Q R S T U V W X Y Z