Song name
# A B C D E F G H I J K L M N O P Q R S T U V W X Y Z

Judas Priest - Future Of Mankind tab

                              Future of Mankind                                 


                                                                    Judas Priest
Guitar 1



                                     W                   W                 
E||-------|-------|-------|-------|-------------------|-------------------|
B||-------|-------|-------|-------|-------------------|-------------------|
G||-------|-------|-------|-------|-------------------|-------------------|
D||-------|-------|-------|-------|--9----------------|--5----------------|
A||-------|-------|-------|-------|--7----------------|--3----------------|
E||-------|-------|-------|-------|--0----------------|-------------------|


  H        Q    E   E     W                   W                 
-----------------------|-------------------|-------------------|
-----------------------|-------------------|-------------------|
-----------------------|-------------------|-------------------|
--7--------L----L--12--|--9----------------|--9----------------|
--5--------L----L--10--|--7----------------|--7----------------|
-----------------------|--0----------------|--0----------------|


  W                   H        Q    E   E     W                 
-------------------|-----------------------|-------------------|
-------------------|-----------------------|-------------------|
-------------------|-----------------------|-------------------|
--5----------------|--7--------L----L--12--|--9----------------|
--3----------------|--5--------L----L--10--|--7----------------|
-------------------|-----------------------|--0----------------|


  S   S  S  S  S   S  S  S S   S  S  S  S   S  S  S  
----------------------------------------------------|
----------------------------------------------------|
--9s-10-10-10-10s-11-11-11-9s-10-10-10-10s-11-11-11-|
--8s--9--9--9--9s-10-10-10-8s--9--9--9--9s-10-10-10-|
----------------------------------------------------|
----------------------------------------------------|


     S  S  S  S S   S  S  S  S  S  S  S  S   S  S  S  
|----------------------------------------------------|
|----------------------------------------------------|
|*---------------------------------------------------|
|*--11-11-11-11-9s-11-11-11-11-11-11-11-12s-11-11-11-|
|----9--9--9--9-7s--9--9--9--9--9--9--9-10s--9--9--9-| X4
|----------------------------------------------------|






  W                    S  S  S  S S   S  S  S  S  S  S  S  S   S  S  S  
-------------------|   ---------------------------------------------------|
-------------------|   ---------------------------------------------------|X2
-------------------|   ---------------------------------------------------|
--9----------------|   --11-11-11-11-9s-11-11-11-11-11-11-11-12s-11-11-11-|
--7----------------|X2 ---9--9--9--9-7s--9--9--9--9--9--9--9-10s--9--9--9-|
-------------------|   ---------------------------------------------------|


repeat all verse 2 prechorus 2 chorus 2


final verse

  S S S S S  S S S S  S S S S  S S S  
|-------------------------------------|
|-------------------------------------|
|-------------------------------------|
|--2-2---2-4s-5---2-4s-5-4---2s-4-5---|
|--2-2---2-4s-5---2-4s-5-4---2s-4-5---|
|--0-0---0-2s-3---0-2s-3-2---0s-2-3---| X 16






Duration Legend
---------------
W - whole
H - half
Q - quarter
E - 8th
S - 16th
T - 32nd
X - 64th
. - note dotted
|-n-|  - n-tuplets


Tank for Eddyhendrix28 . i'm only transcribed this tab 
Tap to rate this tab
 
# A B C D E F G H I J K L M N O P Q R S T U V W X Y Z