Song name
# A B C D E F G H I J K L M N O P Q R S T U V W X Y Z

Judas Priest - Screaming For Vengeance tab

Screaming for Vengeance
by: Judas Priest
tabbed by death to all but metal 56

E-Intro--------------------------|-------------------------------4^~--|------------------------|
B--------------------------------|----------------------------3-------|------------------------|
G--------------------------------|-------------------------34---------|------------------------|
D--------44--66--44--66--44--66--|---66666666666666-----34------------|-------7h8-7-7h8-7------|
A---7----33--55--33--55--33--55--|---55555555555555--34---------------|--6-----------------66--|
E---6----------------------------|------------------------------------|--5-----------------55--|

E-------------------------------------|Verse 1---------|-------------------|-Chorus---------|
B-------------------------------------|--play 9 times--|-play 8 to 9 times-|----------------|
G-------------------------------------|----------------|-------------------|----------------|
D---7h8-7-7h8-7------7h8-7-7h8-7------|---7h8-7-7h8-7--|-------7-7--77-----|----------------|
A----------------66---------------66--|----------------|--666--------------|-10-x--4-6-5-6--|
E----------------55---------------55--|----------------|--555--------------|-9--x--3-5-4-5--|

E----------------|----------------------------------------|-Verse-2-------|---------------|
B----------------|----------------------------------------|-play-11-times-|---------------|
G------------56--|-------------------------7-8--5---------|---------------|---------------|
D---7-7-5-56-----|--------------------------------6--6--8-|--7h8-7-7h8-7--|-----------8-8-|
A----------------|-6-9-6-4--666--444--666------------6--8-|---------------|-10-10-10--7-7-|
E----------------|-5-8-5-3--555--333--555------------5--7-|---------------|-9--9--9-------|

E------------------------------------------------------------------------------------|
B------------------------------------------------------------------------------------|
G------------------------------------------------------------------------------------|
D---------------------------6--6-----------------8--8---------------------------8-8--| PLAY CHORUS
A-10-10-10--6--6--10-10-10--6--6--6-6--10-10-10--7--7--10-10-10--6-6--10-10-10--7-7--|
E-9--9--9---5--5--9--9--9---5--5--5-5--9--9--9---------9--9--9---5-5--9--9--9--------|

E-Interlude---------------------------------------------------------------------------------------|
B-------------------------------------------------------------------------------------------------|
G-------------------------------------------------------------------------------------------------|
D--8---7h8-7-7h8-7-------7----------5-5--7-7--7h8-7-7h8-7-------7h8-7-7h8-7----------7h8-7-7h8-7--|
A--7----------------8-8-----6--6-6-------------------------8-8---------------6--8-8---------------|
E-------------------7-7-----5--5-5-------------------------7-7---------------5--7-7---------------|

E--------------|-SOLO-5h6p5-5h6-5h6-5h6-5h6-5h6p5-5h6p5-5h6-5h6--5h6-5h6-56-----5h6p5-6^-5h6p5---|
B--------------|------------------------------------------------------------56-------------------|
G--------------|---------------------------------------------------------------------------------|
D--------------|---------------------------------------------------------------------------------|
A--8-8---5-----|---------------------------------------------------------------------------------|
E--7-7---5-----|---------------------------------------------------------------------------------|

E--5h6-6h7--------------------------------------------9-10---------------------------------------|
B----------7h8-787-7h8p7-7h8p7-7878-7p8-7h8-7h8-9-10^------9-10----------------------------------|
G----------------------------------------------------------------9-10--7h8-77-7h8-77-7h8-77-7h8--|
D------------------------------------------------------------------------------------------------|
A------------------------------------------------------------------------------------------------|
E------------------------------------------------------------------------------------------------|

E---------------78-5h6p5-5h6--5h6p5-67-----------5h6p5-5h6p5-5h6---------------------------------|
B------------78------------------------67-7h8p7--------------------------------------------------|
G--77-7h8-78------------------------------------------------------44456-444-56-444-556-444-556---|
D------------------------------------------------------------------------------------------------|
A------------------------------------------------------------------------------------------------|
E------------------------------------------------------------------------------------------------|

E-------------------------------------78-|-Interlude-2-------------------------------------|
B----------------------------------78----|-------------------------------------------------|
G--444-556-444-556-444-556--777-78-------|-------------------------------------------------|
D----------------------------------------|--------------------------------------------56---|
A----------------------------------------|-8-8-8-8--6-8-8-8-8-6-8-8-8-8--6---------56------|
E----------------------------------------|-7-7-7-7--5-7-7-7-7-5-7-7-7-7--5--555-56---------|

E---------------------------|---------------------------|Verse-3----------------------------------|
B---------------------------|-----------77-8^-----------|-----------------------------------------|
G---------------------------|---------------------------|-----------------------------------------|
D---------------------------|---------------------------|-----------------------------------------|
A-8-8-8-8--6------------78--|-6-6-8--6---------6-6-8-6--|-10-10-8-10-10-8-6-6-10-10-8-10-10-8-6-6-|
E-7-7-7-7--5--555-77-78-----|-5-5-7--5---------5-5-7-5--|-9-9-9-7-9--9--7-5-5--9--9-7--9--9-7-5-5-|

E---------------------|-----------------------------------------|-----------|---------------------|
B---------------------|-----------------------------------------|-----------|---------------------|
G---------------------|-----------------------------------------|-----------|---------------------|
D---------------------|-----------------------------------------|-----------|---------------------|
A-10-10-8-10-10-6-6---|6-6-8-10-10-6-6-6-8-8-6-6-6-6-x-x-6-6-8--|-6-4-8-6-6-|-6-6-6-x-x-6^-6-8-8--|
E-9--9--7--9--9-5-5---|5-5-7--9--9-5-5-5-7-7-5-5-5-5-x-x-5-5-7--|-5-3-7-5-5-|-5-5-5-x-x-5^-6-7-7--|

E----------------|Chorus------------------------------------------------------------------------|
B----------------|------------------------------------------------------------------------------|
A----------------|------------------56----------------------------------------------------------|
D----------------|-----------7-77-56----------------------------7h8-7-7h8-7-7h8-7-7h8-7-7h8-7---|
A-x-x-6-6-6-8-8--|-6-4-8-6-8------------6-4-8-6-6-6-6-6-6--4-4----------------------------------|
E-x-x-5-5-5-7-7--|-5-3-7-5-7------------5-3-7-5-5-5-5-5-5--3-3----------------------------------|

E-------------------------------------------|-5^-55555-5^-------------------------------------|
B-------------------------------------------|--------------6~~--------------------------------|
G-------------------------------------------|-------------------------------------------------|
D------7h8-7-7h8-7--------7h8-7-7h8-7-------|---------------------------------Hand slide Neck-|
A-6-6---------------6-6-----------------6-6-|-------------------Pick slide--------------------|
E-5-5---------------5-5-----------------6-6-|-------------------------------------------------|

E--555--------------------|
B-------6^--6~~--6^-------|
G-------------------------|          well there it is it's my first tab so let me know what you
D-------------------------|           think of it!
A-------------------------|
E-------------------------|
Tap to rate this tab
 
# A B C D E F G H I J K L M N O P Q R S T U V W X Y Z