Judas Priest - Locked In tab

Judas Priest
Song :"Locked In"
album :turbo
Transcripted by

Tuning standar 

Guitar
Rithm1 verse 1 and 2

E||------|--------------------------------|---------------------------------|
B||------|--------------------------------|-------8-------------------------|
G||------|-----9-----------9-----------9--|-------7-----------7h--9--7------|
D||--2S--|--7--7-----------7-----------7--|-------7-----------7------7--2S--|
A||--0---|-----0--0-----0--0--0-----0--0--|--0----0--0-----0--0------0--0---|
E||------|--------------------------------|---------------------------------|

        P.M.----|       P.M.----|          P.M.    P.M.---|                
|---------------------------------|-----------------------------|
|---------------------------------|-------8----------7----------|
|-----9-----------9------------9--|-------7----------7----------|
|--7--7-----------7------------7--|-------7----------7------2S--|
|-----0--0-----0--0--0------0--0--|--0----0--0----0--0------0---|
|---------------------------------|-----------------------------|

Intro guitar  
Glenn solo 
|-------------|-------------|-------------------|
|-------------|-------------|-------------------|
|--2S---14~---|--2S--14~----|--14----5b---------|
|-------------|-------------|---------------7~--|
|-------------|-------------|-------------------|
|-------------|---------------------------------|

pre chorus riff
|--------------|----------|----------------------------|
|--------------|----------|----------------------------|
|--------------|--2-------|----------------------------|
|--------------|--2-------|----------------------------|
|--4--------5--|--0-------|----3S-5--4-----5--4--------|
|--2--------3--|----------|-------------5--------5--2--|

|--------------------------------------------------|
|--------------------------------------------------|
|-------------------7--------7--------7--------7/5-|
|-----------------5---5----5---0--4-4---0-4-4------|
|--------------------------------------------------|
|-2-----3------------------------------------------|

|--------------------------|-------------|
|--------------------------|-------------|
|--5--5--5--5--5--5--5--7--|-------------|
|--3--3--3--3--3--3--3--5--|-------------|
|--------------------------|-------------|
|--------------------------|----0--0--0--|

Chorus riff 
|--------------------|------------------------------|
|--------------------|------------------------------|
|---------------7----|---------------7--9-----------|
|---------------7----|---------------7--9-----------|
|--------------------|------------------------------|
|--7------7--7-------|---7-----7--7--------7-----7--|

|---------------3-------3-----|-------------------|
|---------------3-------3-----|----3--3-----------|
|---------------4-------4-----|----4--4-----------|
|-----------------------------|----5--5--7--7--7--|
|--5------5--5-------5-----5--|----5--5--7--7--7--| (x2)
|--3------3--3-------3-----3--|----3--3--5--5--5--|

Brideg 
|-------------------------|----------|
|-------------------------|----------|
|-------------------------|----------|
|-------------------------|----------| (x4)
|--7--7--5--6--7--6--5----|----5S----|
|--5--5--3--4--5--4--3----|----3S----|

repeat all the parts 2 times , i dont have yet the correct tab of the solo
but i'm working in this part enjoy the tab 
 
Tap to rate this tab
 
# A B C D E F G H I J K L M N O P Q R S T U V W X Y Z