Song name
# A B C D E F G H I J K L M N O P Q R S T U V W X Y Z

Judas Priest - Reckless tab

Song :Reckless                                     
Band :Judas Priest
Album : turbo
Glenn Tipton and kk downing

Tuning : half step down

Riff  1

D#||------------------------|-------------------------|
A#||------------------------|-------------------------|
F#||--------5----S--2-------|--5----S--2-------0h--2--|
C#||--------5----S--2-------|--5----S--2-------0h--2--|
G#||--0--0---------------0--|---------------0---------|
D#||------------------------|-------------------------|

|----------------------|-----------------------|
|----------------------|-----------------------|
|--------5------4------|--------5------4-------|
|--------5------5------|--------5------5-------|(x4)
|----------------------|-----------------------|
|--1--1----------------|--3--3--------------3--|  


Solo 1
|-------------------|--20b---20---19--17---------|--------20-----------|
|--20b------20------|--------------------20--17--|--20b-------20br-----|
|---------------21--|----------------------------|---------------------|
|-------------------|----------------------------|---------------------|
|-------------------|----------------------------|---------------------|
|-------------------|----------------------------|---------------------|

|-------------------------------|--------------17--17--17--|---19---20--22b~----|
|----20b--20-17-----------------|--------------------------|--------------------|
|----------------19b-----19p-17-|--------------------------|--------------------|
|-------------------------------|--19~----\----------------|--------------------|
|-------------------------------|--------------------------|--------------------|
|-------------------------------|--------------------------|--------------------|

|--15-17-15----15----------------------------------|-------------------------------------|
|-----------17----17-15-17----15-------------------|-------------------------------------|
|--------------------------17----17-16-17-16-14-16-|--9p-0-7p-0-5p-0-4p-0-2p-0-----------|
|--------------------------------------------------|---------------------------5p-4------|
|--------------------------------------------------|--------------------------------7p-5-|
|--------------------------------------------------|-------------------------------------|

Riff 2

verse 1 and 2
|--------------------------|--------------------------|
|--------------------------|--------------------------|
|--------------------------|--------------------------|
|--2--------------------3--|--------------------------|
|--0--0--0--0--0--0--0--0--|--0--0--0--0--0--0--0--0--|
|--------------------------|--------------------------|

     PM PM PM PM PM PM       PM PM PM PM                  PM PM PM PM PM PM      
|--------------------------|-----------------------|-------------------------|
|--------------------------|-----------------------|-------------------------|
|--------------------------|-----------------------|-------------------------|
|--2--------------------2--|-----------------------|--2--------------------3-|
|--3--3--3--3--3--3--3--3--|--3--3--3--3--2--------|--0--0--0--0--0--0--0--0-|
|--------------------------|-----------------3~----|------------------------|

  PM PM PM PM PM PM PM PM       PM PM PM PM PM PM                                      
|--------------------------|--------------------------|---------------------|
|--------------------------|--------------------------|---------------------|
|--------------------------|--------------------------|---------------------|
|--------------------------|--2-----------------------|---------------------|
|--0--0--0--0--0--0--0--0--|--3--3--3--3--3--3--3-----|-------3-----2-------|
|--------------------------|-----------------------3--|----3--3--3--3-------|

Riff 3
Prechorus
|----------------|------------------|
|----------------|------------------|
|--------5-----7-|------------------|
|--2-----5-----7-|--2------3--5-----|
|--0-------------|--0------3--5-----|
|----------------|------------------|


|----------------|--------------------------------------|
|----------------|--------------------------------------|
|--------5-----7-|--------------------------------------|
|--2-----5-----7-|--------------------------------------|
|--0-------------|--------------------------------------|
|----------------|-1-1-1-1-1-1-1-1-1--3-3-3-3-3-3-3-3-3-|

Riff 4
brideg
|---------------------------------------|
|---------------------------------------|
|---------------------------------------|
|--5---7--7----2--5---7--7--2--5--7--7--|
|--3---5--5----0--3---5--5--0--3--5--5--|
|---------------------------------------|

|----------------------------------------|
|----------------------------------------|
|----------------------5--5-----5--5-----|
|----------------------5--5-----5--5-----|
|--5--5--7--7-------0--------0--------0--|
|--3--3--5--5----------------------------|

|---------------------------------------|
|---------------------------------------|
|---------------------------------------|
|--5---7--7----2--5---7--7--2--5--7--7--|
|--3---5--5----0--3---5--5--0--3--5--5--|
|---------------------------------------|

|-----------------------------------|
|-----------------------------------|
|----------3----0----x--3---0-------|
|----------3----0----x--3---0-------|
|-----5-----------------------------|
|--5--3-----------------------0--1--|

|-------------------------------|
|-------------------------------|
|---------3----0----x--3----0---|
|---------3----0----x--3----0---|
|-----5-------------------------|
|--2--3-------------------------|


Solo riff 5
|---------------------|------------------|
|---------------------|------------------|
|---------------------|------------------|
|--3-----2---2--------|--2---2--2--------|
|--0-----3---3--2-----|--0---0--3---5----|
|-----------------3~--|-------------3----|


|---------------------|---------------------|
|---------------------|---------------------|
|---------------------|---------------------|
|--3-----2---2--------|--2---2--2-----------|
|--0-----3---3--2-----|--0---0--3---5---2---|
|-----------------3~--|-------------3---0---|



Songstructure:
Riff 1(4 times)
Riff 2(2 times)
prechorus
Riff 3(1 times)
Chorus
Riff 1(2 times)
Riff 2(2 times)
prechorus
Riff 3(1 times)
Chorus
Riff 1(2 times)
brideg
riff 4(1 times)
solo 
riff 5 1 times
prechorus
riff 3(1 times)
chorus riff (fade out)
solo 1
Tap to rate this tab
 
# A B C D E F G H I J K L M N O P Q R S T U V W X Y Z