Song name
# A B C D E F G H I J K L M N O P Q R S T U V W X Y Z

Judas Priest - Turbo Lover tab

band Judas Priest
album : turbo
song: turbo lover

Lead guitar
glenn solo

E||--------------------|-----------------|----------------------|-------------------------|
B||--------------------|-----------------|----------------------|-------------------------|
G||--------------------|-----------------|----------------------|-------------------------|
D||--------------------|-----------------|----------------------|--12---------------------|
A||--14S--------7------|--14S-----7------|--14----13------15----|--------15----14--12-----|
E||--------------------|-----------------|----------------------|-------------------------|

|--------------------------|----------------------------|-------------|
|--------------------------|----------------------------|-------------|
|--------------------------|----------------------------|-------------|
|--------------------------|----------------------------|-------------|
|--14--14------12----------|--14--14----12--------------|-------------|
|------------------12------|------------------14--15----|--12---------|

|-------------------------------------------------|--------19-------------|--19---------------19-|
|-------------------------------------------------|--17-------------17----|-------------17-------|
|------------------------------------------14--16-|-----------------------|----------------------|
|--------------------------12--14--16--17---------|-----------------------|----------------------|
|--------------12--14--15-------------------------|-----------------------|----------------------|
|--12--14--15-------------------------------------|-----------------------|----------------------|

|--18------20------22----|--20----19--17-------|------------------------------15------17--15-----|
|------------------------|---------------------|----------------------15--17------17---------17--|
|------------------------|---------------------|----------12--14--16-----------------------------|
|------------------------|---------------------|--12--14-----------------------------------------|
|------------------------|---------------------|-------------------------------------------------|
|------------------------|---------------------|-------------------------------------------------|

|------15--17---------15-----------|---------------------------|-------------------------------|
|--17----------17~------------17~--|--L------------------------|-------------------------------|
|----------------------------------|-----------x-x-x-x-x-x-x-x-|-------------------------------|
|----------------------------------|-----------x-x-x-x-x-x-x-x-|--x-x-x-x-x-x-x-x-x-x-x-x------|
|----------------------------------|-----------x-x-x-x-x-x-x-x-|-------------------------------|
|----------------------------------|---------------------------|-------------------------------|


|--------------|------------||
|--------------|------------||
|--------------|------------||
|--------------|------------||
|--------------|------------||
|--------------|------------||
Tap to rate this tab
 
# A B C D E F G H I J K L M N O P Q R S T U V W X Y Z