Judas Priest - Wild Nights Hot Crazy Days tab

Band judas priest 
song : Wild Nights. Hot And Crazy Days
Album :turbo
Discografica :columbia Records

tuning D#

Intro riff 
D#||----------------------------------|--------------------------|
A#||--------------8---8-7-x-8-8-7-----|---------8---8-7------8-7-|
F#||---/9-x-11----7---7-7-x-7-7-7--9--|-/9-x-11-7---7-7------7-7-|
C#||---/7---7----------------------7--|-/7---7-------------------|
G#||----------------------------------|-----------------0-4-0----|
D#||----------------------------------|--------------------------|

|----------------------------------|--------------------------|
|--------------8---8-7-x-8-8-7-----|---------8---8-7------8-7-|
|---/9-x-11----7---7-7-x-7-7-7--9--|-/9-x-11-7---7-7------7-7-|
|---/7---7----------------------7--|-/7---7-------------------|
|----------------------------------|-----------------0-4-0----|
|----------------------------------|--------------------------|

soon i upload the whole song  i dont found the tab of this song sorry
Tap to rate this tab
 
# A B C D E F G H I J K L M N O P Q R S T U V W X Y Z