Song name
# A B C D E F G H I J K L M N O P Q R S T U V W X Y Z

Judas Priest - Hot Rockin Live tab

judas priest 
Hot Rockin' (Live)
Rising in The East DVD

Intro(Enter on second riff. It is first played trough by Tipton)
G-----------|
D-----------|
A-0-0-0-0-0-|
E----------3|

Verse
G----------------------|
D----------------------|
A----------------------|  X5
E-5-5-5-5-88-3-3-3-3-55|

Chorus
G--------------|
D-3-3-6-3-3-3-5|
A--5-----5-----|      X2
E--------------|
VerseX4

Solo
G--------------------------|
D--------------------------|
A--------------------------| X4
E-7-7-7-7-10-10-5-5-5-5-7-7|
VerseX4

Immediatley after finishing hte fourth verse riff, ring out
a 5 on A, and continue to do so after Halford completes each line.

Verse X4
ChorusX2
VerseX3
Outro

G------------|
D------------|
A------------|
E-5-5-5-5-3-5|
Tap to rate this tab
 
# A B C D E F G H I J K L M N O P Q R S T U V W X Y Z