Song name
# A B C D E F G H I J K L M N O P Q R S T U V W X Y Z

Judas Priest - A Touch Of Evil tab

Band: Judas Priest
Song: a Touch Of Evil
album: Painkiller
What part: solo

Copyright (c)  (Sony) (1990)
Version 2.0 - 17/02/05
 
Glenn solo 
standar: tuning E
  
E|----------------------------|---------------------------------|
B|----------------------------|---------------------------------|
G|----------------------------|---------------------------------|
D|------9--------9----9-10-9--|------10--------10---9---7---7---|
A|--7-7------7-7--------------|--8-8-------8-8----8---8---7---7-| (X4)
E|----------------------------|---------------------------------| 
 this guitar solo is of studio album , in the video the solo is cut 

Intro of the glenn tipton solo 
this tab have some changes in the notes and effect 
and add the riff of the solo part for the second guitar 
      \3/
|--------------------|-------------------|
|--------------------|-------------------|
|--------------------|-------------------|
|--9-----/-(x)--0/---|-------------------|
|--------------------|--/7-------9---10--|
|--------------------|-------------------|
                                              PH\0/
|------------------|--------------------------------|------------------|
|------------------|--------------------------------|------------------|
|------------------|--------9-----7-----------------|------------------|
|-------/9--7~-----|------------------10--9---7=----|------------------|
|--3---------------|--7-----------------------------|--/7------9---10--|
|------------------|--------------------------------|------------------|
                                                              PH 
|-----------------|-----------------|--------------------------------|
|-----------------|-----------------|--------------------------------|
|-----------------|-----------------|--------------------------------|
|-------/9--7~----|-----------------|-------------------------12~/---|
|--3--------------|--7----9----10---|--9------9-10-12-10-9-----------|
|-----------------|-----------------|----------------------12--------|

Second guitar 
Harmonic guitar
|-----------------------------------|-----------------|--------------------------------|
|-----------------------------------|-----------------|--------------------------------|
|-----------------------------------|-----------------|--------------------------------|
|--------10--------10---9---7---7---|--5----7----9----|--7-----9----7------------------|
|---8-8-----8-8--8----8---8---7-----|-----------------|----------10---9-10-7-9---------|
|-----------------------------------|-----------------|--------------------------10----|

First guitar solo 

|----------------------------------------------------------------|
|--------/17----15-13-13--15-13h12-------13-12----12-------------|
|----------------------------------14----------14----12/11-------|
|--14~-------------------------------------------------------14--|
|----------------------------------------------------------------|
|----------------------------------------------------------------|

|---17b--17~----|--15-12-----12----------------------------|--22b--22--22b--|
|---------------|---------15----15-12----------------------|----------------|
|---------------|---------------------15-12-14-12-14-12~---|----------------|
|---------------|------------------------------------------|----------------|
|---------------|------------------------------------------|----------------|
|---------------|------------------------------------------|----------------|

|---------------------------------6b------|
|------------ah~---5--5-5-----------------|
|----0---4---4-------------4p3-0----------|
|------2---2---------------------2--------|
|-----------------------------------------|
|-----------------------------------------|

|--11h-12-15p-12p-11----11h-12-15p-12p-11----11h-12-15p-12p-11----11h-12-15p-12p-11-11h-12h-15-|
|--------------------15-------------------15-------------------15------------------------------|
|----------------------------------------------------------------------------------------------|
|----------------------------------------------------------------------------------------------|
|----------------------------------------------------------------------------------------------|
|----------------------------------------------------------------------------------------------|

|---------------10---------------------------------------|--12----/14----15--|
|--12-10h-11-12----12p-11p-10h-11-10-12----10------------|-------------------|
|---------------------------------------12----12-11~-----|-------------------|
|--------------------------------------------------------|-------------------|
|--------------------------------------------------------|-------------------|
|--------------------------------------------------------|-------------------|

|-- ----/17b17-----|------------------------------12-15-12-12-15-|
|---13-------------|--------------------------/12----------------|
|------------------|---------------------------------------------|
|------------------|--16-17---------17---------------------------|
|------------------|--------19---19----19--19--------------------|
|------------------|---------------------------------------------|

|--19-15--------------------18~--\---|--22b--22b--22b------|
|--------17--------------------------|---------------------|
|-----------16-15-12-----------------|---------------------|
|--------------------14-~/-----------|---------------------|
|------------------------------------|---------------------|
|------------------------------------|---------------------|

|---------12-----12-----12-----------|-14p-12----12-14-15-14-19-12h-14-19-12h-14-12h-14h-16-|
|--15b-------15b----15b----15b~------|--------15--------------------------------------------|
|------------------------------------|------------------------------------------------------|
|------------------------------------|------------------------------------------------------|
|------------------------------------|------------------------------------------------------|
|------------------------------------|------------------------------------------------------|

|--12-14h-15-14p-12----12h-14h-15p-14p-12----12h-14-19-|
|-------------------15--------------------15-----------|
|------------------------------------------------------|
|------------------------------------------------------|
|------------------------------------------------------|
|------------------------------------------------------|

|-12h-14-15p-14p-12--------------------------------------|
|-------------------15-14-12h-14h-15p-14-15p-12-15-------|
|--------------------------------------------------14p-12|
|--------------------------------------------------------|
|--------------------------------------------------------|
|--------------------------------------------------------|

|--14p-12----12-15p-14p-12----12h-14-15p-14p-12----|
|---------15---------------15-------------------15-|
|--------------------------------------------------|
|--------------------------------------------------|
|--------------------------------------------------|
|--------------------------------------------------|

Tablature Legend
----------------
x - dead note
g - grace note
> - accentuded note
PH - pitch harmonic
AH - artificial harmonic
h - hammer on
p - pull off
b - bend
\n/ - tremolo bar dip
/ -  slide into from below or out of upwards
\ -  slide into from above or out of downwards
~ - vibrato
TP - tremolo picking
T - tapping
< - fade in

Tap to rate this tab
 
# A B C D E F G H I J K L M N O P Q R S T U V W X Y Z