Song name
# A B C D E F G H I J K L M N O P Q R S T U V W X Y Z

Judas Priest - Heading Out To The Highway tab

Intro (main riff):
E |---------------------------|--------------------------------------|
H |---------------------------|--------------------------------------|
G |-----2---------5-4---4-5-7-|-----2---------5-4-5-7----------------|
D |-----2---------5-4---4-5-7-|-----2---------5-4-5-7----------------|
A |-0-0---0-0-0-0-----0-------|-0-0---0-0-0-0------------------------|
E |---------------------------|--------------------------------------|

E |---------------------------|--------------------------------------|
H |---------------------------|--------------------------------------|
G |-----2---------5-4---4-5-7-|-----2---------5-4-5-7----------------|
D |-----2---------5-4---4-5-7-|-----2---------5-4-5-7----------------|
A |-0-0---0-0-0-0-----0-------|-0-0---0-0-0-0------------------------|
E |---------------------------|--------------------------------------|


Verse:
E |--------------------------|---------------------------------------|
H |--------------------------|---------------------------------------|
G |--------------------------|---------------------------------------|
D |-2--5-----2------------2--|-2--5-----2------------2---------------|
A |-0--3--5--0--0---3--5--0--|-0--3--5--0--0---3--5--0---------------|
E |-------3-------3-1--3-----|-------3-------3-1--3------------------|


Chorus:
E |------------------------------------------------------------------|
H |------------------------------------------------------------------|
G |------------------------------------------------------------------|
D |----7---------7---------7---------7---------5---------------------|
A |-2--5--7--7---5--7--2---5--7--7---5--7--2---3--5------------------|
E |-0-----5--5------5--0------5--5------5--0------3------------------|


Main riff:
E |---------------------------|--------------------------------------|
H |---------------------------|--------------------------------------|
G |-----2---------5-4---4-5-7-|-----2---------5-4-5-7----------------|
D |-----2---------5-4---4-5-7-|-----2---------5-4-5-7----------------|
A |-0-0---0-0-0-0-----0-------|-0-0---0-0-0-0------------------------|
E |---------------------------|--------------------------------------|

E |---------------------------|--------------------------------------|
H |---------------------------|--------------------------------------|
G |-----2---------5-4---4-5-7-|-----2---------5-4-5-7----------------|
D |-----2---------5-4---4-5-7-|-----2---------5-4-5-7----------------|
A |-0-0---0-0-0-0-----0-------|-0-0---0-0-0-0------------------------|
E |---------------------------|--------------------------------------|


Verse:
E |--------------------------|---------------------------------------|
H |--------------------------|---------------------------------------|
G |--------------------------|---------------------------------------|
D |-2--5-----2------------2--|-2--5-----2------------2---------------|
A |-0--3--5--0--0---3--5--0--|-0--3--5--0--0---3--5--0---------------|
E |-------3-------3-1--3-----|-------3-------3-1--3------------------|


Chorus:
E |------------------------------------------------------------------|
H |------------------------------------------------------------------|
G |------------------------------------------------------------------|
D |----7---------7---------7---------7---------5---------------------|
A |-2--5--7--7---5--7--2---5--7--7---5--7--2---3--5------------------|
E |-0-----5--5------5--0------5--5------5--0------3------------------|


Interlude:
E |------------------------------------------------------------------|
H |------------------------------------------------------------------|
G |------------------------------------------------------------------|
D |-4--7------4--7------4--7------4--7-------------------------------|
A |-2--5--7---2--5--7---2--5--7---2--5--7----------------------------|
E |-------5---------5---------5---------5----------------------------|


E |----------------------------------|-------------------------------|
H |----------------------------------|-----------10b12-10-7-10-10b12-|
G |-9b11-9-7--9b11-9-9b11-9-7-9-9b11-|-9b11-9-7----------------------|
D |----------------------------------|-------------------------------|
A |----------------------------------|-------------------------------|
E |----------------------------------|-------------------------------|


Main riff:
E |---------------------------|--------------------------------------|
H |---------------------------|--------------------------------------|
G |-----2---------5-4---4-5-7-|-----2---------5-4-5-7----------------|
D |-----2---------5-4---4-5-7-|-----2---------5-4-5-7----------------|
A |-0-0---0-0-0-0-----0-------|-0-0---0-0-0-0------------------------|
E |---------------------------|--------------------------------------|


Verse:
E |--------------------------|---------------------------------------|
H |--------------------------|---------------------------------------|
G |--------------------------|---------------------------------------|
D |-2--5-----2------------2--|-2--5-----2------------2---------------|
A |-0--3--5--0--0---3--5--0--|-0--3--5--0--0---3--5--0---------------|
E |-------3-------3-1--3-----|-------3-------3-1--3------------------|

Chorus:
E |------------------------------------------------------------------|
H |------------------------------------------------------------------|
G |------------------------------------------------------------------|
D |----7---------7---------7---------7---------5---------------------|
A |-2--5--7--7---5--7--2---5--7--7---5--7--2---3--5------------------|
E |-0-----5--5------5--0------5--5------5--0------3------------------|
Tap to rate this tab
 
# A B C D E F G H I J K L M N O P Q R S T U V W X Y Z