Song name
# A B C D E F G H I J K L M N O P Q R S T U V W X Y Z

Judas Priest - Love Bites tab



verse
Glenn repeat 3 times
-------------------------------------------|
-------------------------------------------|
-------------------------------------------|
-----------------6\------------------------|
-----------------4\------------------------|
-------------------------------------------|

K.K.
--------------------------------------------|
--------------------------------------------|
--------------------------------------------|
----------------6\--------------------------|
----------------4\--------------------------|
--------------------------------------------|

Glenn repeat 2 times
-------------------------------------------|
-------------------------------------------|
-------------------------------------------|
-----------------4/------------------------|
-----------------2/------------------------|
-------------------------------------------|

K.K.
-------------------------------------------|
-------------------------------------------|
-------------------------------------------|
-----------------4/------------------------|
-----------------2/------------------------|
-------------------------------------------|



chorus
Glenn repeat 2 times
-------------------------------------------|
-------------------------------------------|
-------------------------------------------|
-9--8---6--4--2----------------------------|
-7--6---4--2--0----------------------------|
-------------------------------------------|

K.K.
-------------------------------------------|
-------------------------------------------|
-------------------------------------------|
-9--8---6--4--2----------------------------|
-7--6---4--2--0----------------------------|
-------------------------------------------|

Glenn repeat 3 times
-------------------------------------------|
-------------------------------------------|
-------------------------------------------|
--4--6----9--6-----------------------------|
--2--4----7--4-----------------------------|
-------------------------------------------|

K.K.
-------------------------------------------|
-------------------------------------------|
-------------------------------------------|
--4--6----9--6-----------------------------|
--2--4----7--4-----------------------------|
-------------------------------------------|
Bridge
Glenn
-------------------------------------------|
-------------------------------------------|
-------------------------------------------|
---6------4-----2--------------------------|
---4------2-----0----6---4-----------------|
---------------------4---2-----------------|

K.K.
-------------------------------------------|
-------------------------------------------|
-------------------------------------------|
---6------4-----2--------------------------|
---4------2-----0----6---4-----------------|
---------------------4---2-----------------|
Cool Part
Glenn 4 times part 1
-------------------------------------------|
-------------------------------------------|
--0-----7-------6-----------6-4--6---------|
----6------4-4-----4-4---6------6----------|
-------------------------------------------|
-------------------------------------------|
PM- -      - -     - -
K.K.
--------------------------------------------|
--------------------------------------------|
--------------------------------------------|
--------------------------------------------|
--4-4-4-4-4-4-4-4-4-4-4-4-4-4-4-4-4-4-4-4-4-|
--------------------------------------------|
PM- - - - - - - - - - - - - - - - - - - - -
Glenn part 2
-------------------------------------------|
-------------------------------------------|
-------------------------------------------|
-------------------------------------------|
---4--2----4--2----2--4--2-----------------|
---------4-------4---------4---------------|

K.K. the first 2 times continue  palm muting then play this
-------------------------------------------|
-------------------------------------------|
---6--4---6--4---4--6--4-------------------|
--------6------6---------6-----------------|
-------------------------------------------|
-------------------------------------------|
play this for the next Verse
Glenn last verse
-------------------------------------------|
------------------4-5----------------------|
----6--4----6--4--4------------------------|
----6--4----6--4---------------------------|
-------------------------------------------|
-------------------------------------------|

K.K.
-------------------------------------------|
------------------4-5----------------------|
----6--4----6--4--4------------------------|
----6--4----6--4---------------------------|
-------------------------------------------|
-------------------------------------------|

Rest of song goes:

chorus
 last verse
cool part part 1
cool part part 2 till end
Tap to rate this tab
 
# A B C D E F G H I J K L M N O P Q R S T U V W X Y Z