Song name
# A B C D E F G H I J K L M N O P Q R S T U V W X Y Z

Judas Priest - Prelude tab

*** JUDAS PRIEST - Prelude (from "Sad Wings of Destiny", 1976) ***
Written by Glenn Tipton

Tabbed by Jon Malmin (18/12-2011)
Email: jogusmal@hotmail.com
Tuning: Standard E

This song is dominated by a piano, but also features a lead guitar during the second half.
Listen to the song to hear how it sounds, then use this tab to learn it!
                       
               
e||--------------------------------------|----------------------|
B||--------------------------------------|--20b22---------------|
G||--------------16----------16----19----|----------------------|
D||--17----19----------17----------------|----------------------|
A||--------------------------------------|----------------------|
E||--------------------------------------|----------------------|
       
--------------------------|-----------------------|-----------------------|
--20b22--------20~--------|--18b20~---------------|--18--------19---------|
--------------------------|-----------------------|-----------------------|
--------------------------|-----------------------|-----------------------|
--------------------------|-----------------------|-----------------------|
--------------------------|-----------------------|-----------------------|
            
-----------------------|------------------------|-----------------------|
--18b20~---------------|--18b20------18~--------|--16b18~---------------|
-----------------------|------------------------|-----------------------|
-----------------------|------------------------|-----------------------|
-----------------------|------------------------|-----------------------|
-----------------------|------------------------|-----------------------|
                               
--------------------------|-----------------------|
--16----------------------|--17~------------------|
----------14--16~---------|-----------------------|
--------------------------|-----------------------|
--------------------------|-----------------------|
--------------------------|-----------------------|
 
----------------------------------|-----------------------|
--15~-----------------15-------15-|--17~------------------|
----------------16-17----16-17----|-----------------------|
----------------------------------|-----------------------|
----------------------------------|-----------------------|
----------------------------------|-----------------------|
   
----------------------------------|--17--------------19b20--|
--15~-----------------15-------15-|-------------------------|
----------------16-17----16-17----|-------------------------|
----------------------------------|-------------------------|
----------------------------------|-------------------------|
----------------------------------|-------------------------|
                                                               
--19------20p19-17---------------------|-----------------------------|
-------------------x-17p15-17p15-------|-----------------------------|
---------------------------------17-16-|--17--------17-------16------|
---------------------------------------|-------------------------19--|
---------------------------------------|-----------------------------|
---------------------------------------|-----------------------------|

Let this note feedback for 3 measures...                
--------------------|
--------------------|
--------------------|
--17~---------------|
--------------------|
--------------------|

Let the last note ring out... Then you're done!
-------------------||
-------------------||
------14----15--15-||
--15---------------||
-------------------||
-------------------||

************************************************************************
b - Bend
~ - Vibrato
p - Pull-off
x - Dead note
Tap to rate this tab
# A B C D E F G H I J K L M N O P Q R S T U V W X Y Z