Song name
# A B C D E F G H I J K L M N O P Q R S T U V W X Y Z

Judas Priest - Fever tab

----------------------------------------|----------------------------------------||
----------------------------------------|----------------------------------------||
--5--------------5----4---------4----2--|--------------------------------5-------|| x 2
-------7-------------------5------------|-------3-------------------5------------||
------------7---------------------------|------------3----5----3--------------3--||
----------------------------------------|----------------------------------------||

  1    +    2    +    3    +    4    +     1    +    2    +    3    +    4    +


----------------------------------------|----------------------------------------|
----------------------------------------|----------------------------------------|
--9--------------7-------------------7--|-------h8---p7---5----------------------| 
-------10------------------9------------|---------------------------7---------5--|
------------10------------------10------|--------------------------------8-------|
----------------------------------------|----------------------------------------|

  1    +    2    +    3    +    4    +     1    +    2    +    3    +    4    +



----------------------------------------|----------------------------------------|
----------------------------------------|----------------------------------------|
--5--------------5----4---------4----2--|----------------------------------------| 
-------7--------------------------------|----------------------------------------|
------------7---------------------------|----------------------------------------|
----------------------------------------|----------------------------------------|

  1    +    2    +    3    +    4    +     1    +    2    +    3    +    4    +



----------------------------------------|----------------------------------------||
----------------------------------------|----------------------------------------||
-----------------2-------------------2--|--0---------2---------------------------|| x ? 
------------2-------------------3-------|-----------------3----0---------2-------||
--0-------------------0-----------------|-------------------------------------3--||
----------------------------------------|----------------------------------------||

  1    +    2    +    3    +    4    +     1    +    2    +    3    +    4    +



----------------------------------------||        ----------------------------------------|
--------------------------------3-------||        ----------------------------------------|
--2-------------------5---------2-------||        --2-------------------------------------| 
--2-------------------3-----------------|| x 2    --2-------------------------------------|
--0-------------------------------------||        --0-------------------------------------|
----------------------------------------||        ----------------------------------------|

  1    +    2    +    3    +    4    +              1    +    2    +    3    +    4    +



----------------------------------------|----------------------------------------|
----------------------3-----------------|------------3---------3---------5-------|
--5-------------------2-----------------|--5---------2---------2---------4-------| 
--3-----------------------------2-------|--3-------------------------------------|
--------------------------------2-------|----------------------------------------|
----------------------------------------|----------------------------------------|

  1    +    2    +    3    +    4    +     1    +    2    +    3    +    4    +



----------------------------------------|----------------------------------------|
----------------------------------------|------------3---------3---------5-------|
--2----2---------2---------2---------2--|--5---------2---------2---------4-------| 
--2---------3---------2---------3-------|--3-------------------------------------|
--0-------------------------------------|----------------------------------------|
----------------------------------------|----------------------------------------|

  1    +    2    +    3    +    4    +     1    +    2    +    3    +    4    +



----------------------------------------|----------------------------------------|
----------------------------------------|----------------------3---------5-------|
----------------------------------------|--5-------------------2---------4-------| 
--2---------2----0----2---------2-------|--3-------------------------------------|
--0---------0----0----0---------0-------|----------------------------------------|
----------------------------------------|----------------------------------------|

  1    +    2    +    3    +    4    +     1    +    2    +    3    +    4    +



----------------------------------------|----------------------------------------|
----------------------------------------|----------------------3-----------------|
----------------------------------------|--5-------------------2-----------------| 
--2---------2----0----2---------2-------|--3-----------------------------2-------|
--0---------0----0----0---------0-------|--------------------------------2-------|
----------------------------------------|----------------------------------------|

  1    +    2    +    3    +    4    +     1    +    2    +    3    +    4    +



----------------------------------------|----------------------------------------|
------------3---------3---------5-------|----------------------------------------|
--5---------2---------2---------4-------|----------------------------------------| 
--3-------------------------------------|--2---------2----0----2---------2-------|
----------------------------------------|--0---------0----0----0---------0-------|
----------------------------------------|----------------------------------------|

  1    +    2    +    3    +    4    +     1    +    2    +    3    +    4    +



----------------------------------------|----------------------------------------|
------------3---------3---------5-------|----------------------------------------|
--5---------2---------2---------4-------|----------------------------------------| 
--3-------------------------------------|--2----2-2-------2----3------3-------5-3|
----------------------------------------|--0----3-0-------3----3------3-------3-3|
----------------------------------------|----------------------------------------|

  1    +    2    +    3    +    4    +     1    +    2    +    3    +    4    +



----------------------------------------|
----------------------------------------|
--2------------------------5--4---------|
--0-----------------------------5--4-2--|
----------------------------------------|
----------------------------------------|

  1    +    2    +    3    +    4    +   
Tap to rate this tab
# A B C D E F G H I J K L M N O P Q R S T U V W X Y Z