Song name
# A B C D E F G H I J K L M N O P Q R S T U V W X Y Z

Judas Priest - Breaking The Law tab

This is all transcribed from playing others tabs and the song itself


             Intro
e----------------------------------------|
B----------------------------------------|
G----------------------------------------|
D----------------------------------------|
A---0-2-3--0-2-3--------0--------0---3-2-|
E-----------------1---3----1---3----3----|  Play this Twice

e------------------------|
B------------------------|
G------------------------|
D--2---5---2---2-----5-2-| Play This Twice
A--0---3-5-0---0---5-3-0-|
E--------3---------3-----|

e-----------------------|
B-----------------------|
G-----------------------|
D------5----------------|
A-3----3----3----2------|
E-1---------1----0------|

e--------------------------------|
B-----------10-----------10-10---|
G-----------9------------9--9----|
D--------------------------------| Play This Twice
A--------------------------------|
E-0000-0000----0000-0000---------|

e-----------------------|
B-----------------------|
G-----------------------|
D-2---5---2---5---7---9-|
A-0---3-5-0---3---5---7-|
E-------3---------------|

e-----------------------------|
B----------10-----------10-10-|
G----------9------------9--9--|  Play this twice
D-----------------------------|
A-----------------------------|
E-0000-0000---0000-0000-------|

e------------|
B------------|
G------------|
D-4--4-------|
A-2--2-0-0-0-| play this three times
E------------|

e-------------------------------|
B-------------------------------|
G-------------------------------|
D-7--10--5--7--10--12--7--10--5-|
A-5--8---3--5--8---10--5--8---3-|
E-------------------------------|

Play the Intro about six more times
Tap to rate this tab
 
# A B C D E F G H I J K L M N O P Q R S T U V W X Y Z